Oops, an error
Loading. Please wait.

Behold The Harlot Tab

ver2
ver2

Whole song

More versions @911Tabs.com
1,406 views 1 this week
no commentswrite comment
1 2 3 4 5
please rate
Autoscroll
+/-
esc
set tempo
stop
Contributor
Difficulty
intermediate
Hey! There's an official Ultimate Guitar app which is ideal
for learning songs when you're away from computer. Get the app
WARNING: You are trying to view
                                    content from Ultimate-Guitar.com
                                    in an unauthorized application,
                                    which is prohibited.

                                    Please use an official Ultimate
                                    Guitar Tabs application for iPhone,
                                    iPad or Android to access legitimate
                                    chords, guitar, bass, and drum tabs
                                    from Ultimate-Guitar.com database.

                                    Type "ultimate guitar tabs" in Apple
                                    App Store's or Android Market's
                                    search to find the application.
Tuning
G# D# G# C# F A#

Whole song, as if played by a single person.

h       = hammer on
p       = pull off
/ \     = slides
*       = harmonic
^       = bend
t       = tremolo pick
~       = vibrato
|       = breaks


|-------9p5-------------------------|
|-----------7---6-7-9-6-7-9---------|
|-------------6---------------------|
|---------------------------------3-|
|-------------------------------4---|
|-0-0-0---------------------0-0-----|

 -----------------------------------------------------------|
 -----------------------------------------------------------|
 -----------------------------------------------------------|
 -----------------------------------------------------------|
 -----------------------------------------------------------|
 -4-4-4-7^-4-7^-6^-444-444-444-4-4-4-7^-4-7^-6^-444-444-444-|

|--------------------------7-9-7-----------------|
|-9h10p9-----------9-10-12-------10-9-10-9-------|
|--------11-10-11--------------------------11-10-|
|------------------------------------------------|
|------------------------------------------------|
|------------------------------------------------|

|--------------------------7-9-7-----------------|
|-9h10p9-----------9-10-12-------10-9-10-9-------|
|--------11-10-11--------------------------11-10-|
|------------------------------------------------|
|------------------------------------------------|
|------------------------------------------------|

 -----------------------------------------------------------|
 -----------------------------------------------------------|
 -----------------------------------------------------------|
 -----------------------------------------------------------|
 -----------------------------------------------------------|
 -4-4-4-7^-4-7^-6^-444-444-444-4-4-4-7^-4-7^-6^-444-444-444-|

|--------------------------7-9-7-----------------|
|-9h10p9-----------9-10-12-------10-9-10-9-------|
|--------11-10-11--------------------------11-10-|
|------------------------------------------------|
|------------------------------------------------|
|------------------------------------------------|

|--------------------------7-9-7-----------------|
|-9h10p9-----------9-10-12-------10-9-10-9-------|
|--------11-10-11--------------------------11-10-|
|------------------------------------------------|
|------------------------------------------------|
|------------------------------------------------|

|-----------------------------------------------------|
|-----------------------------------------------------|
|-----------------------------------------------------|
|-----------------------------------------------------|
|-----------------------------------------------------|
|-6^--6^--6^--6^--7-6-3-4----6^--6^--6^--6^--7-6-3-4--|

|--------------------------7h9p7----------|
|-9h10p9-----------9-10-12-------10-9-----|
|--------11p10h11-------------------------|
|-----------------------------------------|
|-----------------------------------------|
|-----------------------------------------|

|----------------------------------7h9p7----------|
|-10-9----9h10p9-----------9-10-12-------10-9-----|
|------11--------11p10h11-------------------------|
|-------------------------------------------------|
|-------------------------------------------------|
|-------------------------------------------------|

|--------------------------7h9p7----------|
|-9h10p9-----------9-10-12-------10-9-----|
|--------11p10h11-------------------------|
|-----------------------------------------|
|-----------------------------------------|
|-----------------------------------------|

|----------------------------------7h9p7----------|
|-10-9----9h10p9-----------9-10-12-------10-9-----|
|------11--------11p10h11-------------------------|
|-------------------------------------------------|
|-------------------------------------------------|
|-------------------------------------------------|

|-----------------------------------------------|
|-----------------------------------------------|
|-----------------------------------------------|
|-------------------------6p3-------------------|
|-4--4-4---4--4-4---4-4-4-----4-------4--4--4-4-|
|-3--3-3---3--3-3---3-3-3-------6p3h6----3--3-3-|

|-----------------------------------------------|
|-----------------------------------------------|
|-----------------------------------------------|
|-------------------------6p3-------------------|
|-4--4-4---4--4-4---4-4-4-----4-------4--4--4-4-|
|-3--3-3---3--3-3---3-3-3-------6p3h6----3--3-3-|

|-----------------------------------------------|
|-----------------------------------------------|
|-----------------------------------------------| 
|-------------------------6p3-------------------|
|-4--4-4---4--4-4---4-4-4-----4-------4--4--4-4-|
|-3--3-3---3--3-3---3-3-3-------6p3h6----3--3-3-|

|-----------------------------------------------------------|
|-----------------------------------------------------------|
|-----------------------------------------------------------|
|-----------------------------------------------------------|
|-----------------------------------------------------------|
|-4-4-4-7^-4-7^-6^-444-444-444-4-4-4-7^-4-7^-6^-444-444-444-|

 -----------------------------------------------------------------|
 -----------------------------------------------------------------|
 -----------------------------------------------------------------|
 -6p3-----------3h6p3-----------3h6p3-----------3h6p3-----------3-|
 -----4-------4-------4-------4-------4-------4-------4-------4---|
 -------6p3h6-----------6p3h6-----------6p3h6-----------6p3h6-----|

|-----------------------------------------------------------|
|-----------------------------------------------------------|
|-----------------------------------------------------------|
|-----------------------------------------------------------|
|-----------------------------------------------------------|
|-4-4-4-7^-4-7^-6^-444-444-444-4-4-4-7^-4-7^-6^-444-444-444-|

-----------------------------------------------------------------|
-----------------------------------------------------------------|
-----------------------------------------------------------------|
-6p3-----------3h6p3-----------3h6p3-----------3h6p3-----------3-|
-----4-------4-------4-------4-------4-------4-------4-------4---|
-------6p3h6-----------6p3h6-----------6p3h6-----------6p3h6-----|
                   ~~                       ~~                   ~~
|------------------14--------------------------------------------14-------------------|
|-----10h11p10---------------------10h11p10-9--------10h11p10-------------------------|
|-/11-------------------/11----------------------/11------------------/11~--11h13p10~-|
|-------------------------------------------------------------------------------------|
|-------------------------------------------------------------------------------------|
|-------------------------------------------------------------------------------------|

----------------------------------------------------------------------------------------------|
----------10h14p10----------------10h14p10-----------------9h12p9----------------9h12p9-------|
-11----------------11----11----------------11-----10--------------10----10--------------10----|
-------11-------------11-------11--------------11-------11-----------11-------11-----------11-|
----------------------------------------------------------------------------------------------|
----------------------------------------------------------------------------------------------|

----------------------------------------------------------------------------------------------|
----------10h14p10----------------10h14p10-----------------9h12p9----------------9h12p9-------|
-11----------------11----11----------------11-----10--------------10----10--------------10----|
-------11-------------11-------11--------------11-------11-----------11-------11-----------11-|
----------------------------------------------------------------------------------------------|
----------------------------------------------------------------------------------------------|

|--------------------------------------------------|
|--------------------------------------------------|
|--------------------------------------------------|
|-6p3-----------3-------------6p3-----------3------|
|-----4-------4-------------------4-------4--------|
|-------6p3h6-----4444--4444--------6p3h6-----4444-|

 ---------------------------------------------------|
 ---------------------------------------------------|
 ---------------------------------------------------|
 -6p3-----------3--------------6p3-----------3------|
 -----4-------4--------------------4-------4--------|
 -------6p3h6-------4444-4444--------6p3h6-----4444-|

 --------------------7--------------------------------|
 ------------------9----------------------------------|
 -------------7h10------------------------------------|
 -6p3-------------------------------------------------|
 -----4--------------------------4-4-4-4-4-4-4-4------|
 -------6p3h6----------4444-4444-4-4-4-4-4-4-4-4-4444-|

 --------------------7-----------------------------------|
 ------------------9-------------------------------------|
 -------------7h10---------------------------------------|
 -6p3----------------------------------------------------|
 -----4--------------------------------------------------|
 -------6p3h6----------4444-4444-666666555555333333-4444-|

 --------------------7--------------------------------|
 ------------------9----------------------------------|
 -------------7h10------------------------------------|
 -6p3-------------------------------------------------|
 -----4--------------------------4-4-4-4-4-4-4-4------|
 -------6p3h6----------4444-4444-4-4-4-4-4-4-4-4-4444-|

 --------------------7--------------------------------------------------------7-|
 ------------------9--------------------------------------------------------9---|
 -------------7h10-----------------------------------------------------7h10-----|
 -6p3------------------------------------------------------6p3------------------|
 -----4--------------------------------------------------------4----------------|
 -------6p3h6----------4444-4444-666666555555333333-4444---------6p3h6----------|

|-----------------------------------------------------------|
|-----------------------------------------------------------|
|-----------------------------------------------------------|
|-----------------------------------------------------------|
|-----------------------------------------------------------|
|-4-4-4-7^-4-7^-6^-444-444-444-4-4-4-7^-4-7^-6^-444-444-444-|

 ---------------------------------------------------------|
 ---------------------------------------------------------|
 ---------------------------------------------------------|
 -6p3-----------3-6p3-----------3----6p3-----------3------|
 -----4-------4-------4-------4----------4-------4----*8^-|
 -------6p3h6-----------6p3h6--------------6p3h6----------|

 ---------------------------------------------------------|
 ---------------------------------------------------------|
 ---------------------------------------------------------|
 -6p3-----------3-6p3-----------3----6p3-----------3------|
 -----4-------4-------4-------4----------4-------4--------|
 -------6p3h6-----------6p3h6--------------6p3h6------4\--|
                   ~~                       ~~                   ~~
|------------------14--------------------------------------------14-------------------|
|-----10h11p10---------------------10h11p10-9--------10h11p10-------------------------|
|-/11-------------------/11----------------------/11------------------/11~--11h13p10~-|
|-------------------------------------------------------------------------------------|
|-------------------------------------------------------------------------------------|
|-------------------------------------------------------------------------------------|

----------------------------------------------------------------------------------------------|
----------10h14p10----------------10h14p10-----------------9h12p9----------------9h12p9-------|
-11----------------11----11----------------11-----10--------------10----10--------------10----|
-------11-------------11-------11--------------11-------11-----------11-------11-----------11-|
----------------------------------------------------------------------------------------------|
----------------------------------------------------------------------------------------------|

----------------------------------------------------------------------------------------------|
----------10h14p10----------------10h14p10-----------------9h12p9----------------9h12p9-------|
-11----------------11----11----------------11-----10--------------10----10--------------10----|
-------11-------------11-------11--------------11-------11-----------11-------11-----------11-|
----------------------------------------------------------------------------------------------|
----------------------------------------------------------------------------------------------|
        
|----------------------------------|
|----------------------------------|
|----------------------------------|
|-6p3-----------3--6p3-----------3-|
|-----4-------4--------4-------4---|
|-------6p3h6------------6p3h6-----|

 -------------------------------------------------------|
 -------------------------------------------------------|
 -------------------------------------------------------|
 -----------------------------------6p3-----------3-----|
 -------------4-4-4-4-4-4-4-4-----------4-------4-------|
 -4444--4444--4-4-4-4-4-4-4-4-4444--------6p3h6---------|

 ----------------------------------------------------------|
 ----------------------------------------------------------|
 ----------------------------------------------------------|
 --------------------------------------6p3-----------3-----|
 ------------------------------------------4-------4-------|
 -4444--4444--666666555555333333-4444--------6p3h6---------|

 ------------------------------------------------------7-|
 ----------------------------------------------------9---|
 -----------------------------------------------7h10-----|
 -----------------------------------6p3------------------|
 -------------4-4-4-4-4-4-4-4-----------4----------------|
 -4444--4444--4-4-4-4-4-4-4-4-4444--------6p3h6----------|

 ---------------------------------------------------------7----------10-|
 -------------------------------------------------------9----------12---|
 --------------------------------------------------7-10------10-13------|
 --------------------------------------6p3------------------------------|
 ------------------------------------------4----------------------------|
 -4444--4444--666666555555333333-4444--------6p3h6----------------------|

|-----------------------------------------------------------|
|-----------------------19----------------------------------|
|---11---11/14----14/18----18----18----18----18-19t-22t-23\-|
|-----------------------------------------------------------|
|-9----9-------12-------------16----16----16----------------|
|-----------------------------------------------------------|

 ------------------------------------------------------|
 ------------------------------------------------------|
 ------------------------------------2------------5----|
 ---------------------------------6------------9-------|
 ----------------3--3--7--6-----4------------7---------|
 -4-4--4-4--4-4--4--4--7--6--3------------6------------|

 -----------------------------------------------------------|
 -----------------------19----------------------------------|
 ---11---11/14----14/18----18----18----18----18-19t-22t-23\-|
 -----------------------------------------------------------|
 -9----9-------12-------------16----16----16----------------|
 -----------------------------------------------------------|

 ------------------------------------------------------|
 ------------------------------------------------------|
 ------------------------------------2------------5----|
 ---------------------------------6------------9-------|
 ----------------3--3--7--6-----4------------7---------|
 -4-4--4-4--4-4--4--4--7--6--3------------6------------|

|---------------------------|
|---------------------------|
|---------2------------5----|
|------6------------9-------|
|----4------------7---------|
|-3------------6------------|

|-------------------------------------------------|
|-------------------------------------------------|
|-------------------------------------------------|
|---------------------------------6p3-----------3-|
|-2222-2222---2222--2--2222-2222------4-------4---|
|-3333-3333---3333--3--3333-3333--------3h4h6-----|

 --------------------------------------------------|
 --------------------------------------------------|
 --------------------------------------------------|
 ---------------------------------6p3-----------3--|
 -2222-2222---2222--2--2222-2222------4-------4----|
 -3333-3333---3333--3--3333-3333----------3h6------|

 -----------------------------------------------|
 -----------------------------------------------|
 -------2---------5-----------------------------|
 -----6---------9-------------------------------|
 ---4---------7-------2222-2222----2-2-2--2-2-2-|
 -3---------6---------3333-3333----3-3-3--3-3-3-|

 -------------------------------------|
 -------------------------------------|
 ------------------------2---------5--|
 -6p3-----------3------6---------9----|
 -----4-------4------4---------7------|
 -------3h4h6------3---------6--------|

|--------------------------------------------------------|
|--------------------------------------------------------|
|--------------------------------------------------------|
|----------------------------------------6p3-------------|
|-2-2-2--2-2-2---2-2-2--2--2-2-2--2-2-2------4-------4h8-|
|-3-3-3--3-3-3---3-3-3--3--3-3-3--3-3-3--------3h4h6-----|

|---------------------------------------------------------------------------|
|---------------------------------------------------------------------------|
|---------------------------------------------------------------2--------5--|
|----------------------------------------6p3-----------3------6--------9----|
|-2-2-2--2-2-2---2-2-2--2--2-2-2--2-2-2------4-------4------4--------7------|
|-3-3-3--3-3-3---3-3-3--3--3-3-3--3-3-3----------3h6------3--------6--------|
                   ~~                       ~~                   ~~
|------------------14--------------------------------------------14-------------------|
|-----10h11p10---------------------10h11p10-9--------10h11p10-------------------------|
|-/11-------------------/11----------------------/11------------------/11~--11h13p10~-|
|-------------------------------------------------------------------------------------|
|-------------------------------------------------------------------------------------|
|-------------------------------------------------------------------------------------|

----------------------------------------------------------------------------------------------|
----------10h14p10----------------10h14p10-----------------9h12p9----------------9h12p9-------|
-11----------------11----11----------------11-----10--------------10----10--------------10----|
-------11-------------11-------11--------------11-------11-----------11-------11-----------11-|
----------------------------------------------------------------------------------------------|
----------------------------------------------------------------------------------------------|

----------------------------------------------------------------------------------------------|
----------10h14p10----------------10h14p10-----------------9h12p9----------------9h12p9-------|
-11----------------11----11----------------11-----10--------------10----10--------------10----|
-------11-------------11-------11--------------11-------11-----------11-------11-----------11-|
----------------------------------------------------------------------------------------------|
----------------------------------------------------------------------------------------------|

|---------------------------------------------|
|---------------------------------------------|
|---------------------------------------------|
|-6p3-----------3h6p3-----------3-------------|
|-----4-------4-------4-------4-----4444-4444-|
|-------6h3h6-----------6p3h6-------4444-4444-|
comments
We did not receive enough feedback on this tab! Please rate:
print report bad tab
1 2 3 4 5
I want to post or [tab]
guest
You may want to rate the tab now too:
select rating
Please do not post tabs as comments. Select "correction" instead!