Oops, an error
Loading. Please wait.

Call Off The Wedding Tab

7,389 views 6 this week
6 commentsread comments
1 2 3 4 5
excellent!
x 10
Autoscroll
+/-
esc
set tempo
stop
Contributor
Difficulty
advanced
Hey! There's an official Ultimate Guitar app which is ideal
for learning songs when you're away from computer. Get the app
WARNING: You are trying to view
                                    content from Ultimate-Guitar.com
                                    in an unauthorized application,
                                    which is prohibited.

                                    Please use an official Ultimate
                                    Guitar Tabs application for iPhone,
                                    iPad or Android to access legitimate
                                    chords, guitar, bass, and drum tabs
                                    from Ultimate-Guitar.com database.

                                    Type "ultimate guitar tabs" in Apple
                                    App Store's or Android Market's
                                    search to find the application.
"Call off the Wedding"

BY: WITHIN THE RUINS

Transcribed by Joe Keller
jkguitar@comcast.net

My Video on how to play:
http://www.youtube.com/watch?v=XIJZi6cYJuA

PLEASE DO NOT Copy without Permission!

THANKS AND ENJOY!

Tuning
G# D# G# C# F A#


you know the deal..

h= hammer on
p= pull off
/ \= slides
*= harmonic

ect....




|----------------9p5-----------------------------------------------------|
|--------------------7h9-------------------------------------------------|
|------------------------------------------------------------------------|
|-------7/11-----------------------333333--------3333-9p0-7p0-6h7p6-3----|
|-----------------------------------------444444-------------------------|
|-444-4-------4----------444-333-----------------------------------------|

|----------------------------------------------------------------|
|----------------------------------------------------------------|
|---------------------------2-6----------------------------------|
|---7---7/11----3-------3-6----------------11--------------------|
|-----------------4---4------------4---4/8----9-8-*9-------------|
|-4---4-------4-----0------------0---0---------------0-0-0-------|

|--------------------------------------------------------------------------------|
|--------------------------------------------------------------------------------|
|-666666-10-10-10-10-10-10-6666--------------------------------------------------|
|-------------------------------7777776666667777---------------9p0-7p0-6h7p6-3h6-|
|-----------------------------------------------88888888888888-------------------|
|--------------------------------------------------------------------------------|

|---------------------------------------------------------------------------------|
|-----------------------------12h14p12-------------12h14p12-----------------------|
|-------------11--13----14-------------14-13---13-----------14-13---13--13--13----|
|---7---7/11----------------------------------------------------------------------|
|------------9---9---11----12----------------11--11---------------11--11--11--11--|
|-4---4---------------------------------------------------------------------------|

|--------------------------------------------------------------------------------------|
|--------------------------------------------------------------------------------------|
|-666666-10-10-10-10-10-10-6666-11-11-11-11-11-11-10-10-10-10-10-10-6666---------------|
|-----------------------------------------------------------------------88888888888888-|
|--------------------------------------------------------------------------------------|
|--------------------------------------------------------------------------------------|

|------------------------------------------------------------------------|
|------------------10-9-6h9p6-7-10-9-6h9p6-7--10-9-6h9p6-7-10-9-6h9p6-7--|
|------------------------------------------------------------------------|
|-9p0-7p0-6h7p6-3h6------------------------------------------------------|
|------------------------------------------------------------------------|
|------------------------------------------------------------------------|

|------------------------------------------------------------------------|
|------------------------------------------------------------------------|
|------------------------------------------------------------------------|
|------------------------------------------------------------------------|
|-99999999999988888888888811-11-11-11-11-11-11-11-11-11-11-4444444444444-|
|------------------------------------------------------------------------|

|---------------------------------------------------|
|---------------------------------------------------|
|---------------------------------------------------|
|-7-6-3h6p3-4-7-6-3h6p3-4--7-6-3h6p3-4-7-6-3h6p3-4--|
|---------------------------------------------------|
|---------------------------------------------------|

|--------------------------------------------------------|
|--------------------------------------------------------|
|--------------------------------------------------------|
|-11-9-7h9p7---11-9-7h9p7----11-9-7h9p7---11-9-7h9p7-----|
|------------8------------8-------------8------------8---|
|--------------------------------------------------------|

|---------------------------------x--------------------------------------|
|---------------------------------8--------------------------------------|
|---------------------------------x--------------------------------------|
|---------3---6-------------------6----------------------------------4---|
|-9-----4---4---4-4-4444-4-4-4444-5---44-4-44-4-4-444-4-444444-4-444-4---|
|---12\---------5-5-5555-5-5-5555-----55-5-55-5-5-555-5-555555-5-555-4---|

|----------------------------------------------------------------------|
|----------------------------------------------------------------------|
|----------------------------------------------------------------------|
|-------------------------4------------------3---6---------------------|
|-44-4-44-44-4-44-44-4-44-4--44-4-44-9-----4---4---44-4-44-4-4444-4----|
|-44-4-44-44-4-44-44-4-44-4--44-4-44---12\---------55-5-55-5-5555-5----|

|---------------------------------------------------------------|
|---------------------------------------------------------------|
|---------------------------------------------------------------|
|----------------------------------------3---3-6-------7-11p7---|
|-444-4-44-444-4-44---44-4-44-4---9----4---4-----4-8-9----------|
|-444-4-44-444-4-44---44-4-44-4-----12\-------------------------|

|------------------------------------------------------------------------|
|------------------------------------------------------------------------|
|------------------------------------------------------------------------|
|-----------------3---6--------------------------------------------------|
|-44-4-44-9-----4---4---4-4-4-4-44-4-4-44-44-4-4-44-44-4-4-44-44-4-4-44--|
|-44-4-44---12\---------5-5-5-5-44-4-4-44-44-4-4-44-44-4-4-44-44-4-4-44--|

|-----------------------------------------------------
|-----------------------------------------------------
|-----------------------------------------------------
|---------3---6------------------3---6/9---9-12-11-9--
|-9-----4---4---44-4-44-9-----4---4-----8------------
|---12\---------55-5-55---12\------------------------

 --------------------5h9p5---------------------------------------------------|
-------------------------7-6-7--9-6h9p6-----6h9p6-----6h9p6-----6h9p6-------|
------------------------------7---------7-6-------7-6-------7-6-------7-----|
--------3---6/9---9---------------------------------------------------------|
9-----4---4-----8-----------------------------------------------------------|
--12\-----------------------------------------------------------------------|

play this frame a couple times...
|-5h9p5------------------------------------------------|
|-------7-6---9-6h9p6-----6h9p6-----6h9p6-----6h9p6----|
|-----------6---------7-6-------7-6-------7-6-------7--|
|------------------------------------------------------| 
|------------------------------------------------------|
|------------------------------------------------------|

|-5h9p9-------------------------------------------|
|-------7-6---9-----------------------------------|
|-----------6-------------------------------------|
|-------------------------------------------------|
|---------------44444-44444-4444-4444-4444444-----|
|---------------44444-44444-4444-4444-4444444-----|

|------------------------------------------------------------|
|------------------------------------------------------------|
|------------------------------------------------------------|
|-----------------------33-3-33-3-33333--6-66666-9--9--9-----|
|-44444-44444-4444-4444-44-4-44-4-44444--8-88888-11-11-11----|
|-44444-44444-4444-4444--------------------------------------|

|-----------------------------------------------------------------------|
|-----------------------------------------------------------------------|
|-11-6-6-7-6------------------------------------------------------------|
|-----------------------------------------------------------------------|
|------------44-4-44-44-4-44-44-4-44-44-4-44-44-4-44-44-4-44-444444444--|
|------------44-4-44-44-4-44-44-4-44-44-4-44-44-4-44-44-4-44-444444444--|

play this one a couple times...
|---------------------------------------------------------------------|
|-9h12p9-------9h12p9-------9h12p9-------9h12p9-------9h12p9----------|
|--------11-10--------11-10--------11-10--------11-10--------11-10-11-|
|---------------------------------------------------------------------|
|---------------------------------------------------------------------|
|---------------------------------------------------------------------|

|-9p5-----------5-9p5--------------------------------------------------|
|-----7h9-6h7h9-------7h9-6h9p6h9--------------------------------------|
|----------------------------------------------------------------------|
|-------------------------------------------------6h7p6-----4-7---3-6--|
|-------------------------------------------------------5-4-----4------|
|---------------------------------444444444444444----------------------|

|---------------------------------------------------------------------------------------
|-999999-10-10-10-10-10-10-12-12-12-12-12-12-999999-10-10-10-10-10-10-12-12-12-12-12-12-
|---------------------------------------------------------------------------------------
|---------------------------------------------------------------------------------------
|---------------------------------------------------------------------------------------
|---------------------------------------------------------------------------------------
Long, i know.. but you get the idea...
--------------------------------------------------------------------------------------------------|
-10-10-10-10-10-14-14-14-14-14-12-12-12-12-12-10-10-10-10-10-999999-12-12-12-12-12-10-10-10-10-10-|
--------------------------------------------------------------------------------------------------|
--------------------------------------------------------------------------------------------------|
--------------------------------------------------------------------------------------------------|
--------------------------------------------------------------------------------------------------|

|-------------------------------------
|-66666677777799999-666667777799999---
|-------------------------------------
|-------------------------------------
|-------------------------------------
|-------------------------------------

 ---------------------------------------------------------|
 -7-10-9-7-6-9-7----------------------------------9999999-|
 ----------------66666-6666666-10-10-10--10-10-10---------|
 ---------------------------------------------------------|
 ---------------------------------------------------------|
 ---------------------------------------------------------|

|-------------------------------------------------9p5-----------5h9p5-------------
|-----------------------------------------------------7h9-6h7h9-------7h9-6h9p6h9-
|---------------------------------------------------------------------------------
|---------------------------------------------------------------------------------
|-44444-4444444-444-444-4444444----44444-4444444----------------------------------
|-44444-4444444-444-444-4444444----44444-4444444----------------------------------

|---------------------------------------------------|
|---------------------------------------------------|
|---------------------------------------------------|
|---------------------------------------------------|
|-44444-4444444-4444-4444-4444444----44444-4444444--|
|-44444-4444444-4444-4444-4444444----44444-4444444--|

|-9p5-----------5h9p5--------------
|-----7h9-6h7h9-------7h9-6h9p6h9--
|----------------------------------
|----------------------------------
|----------------------------------
|----------------------------------

play this for awhile...
 -5h9p5-----------5h9p5------------|
 -------7h9-6h7h9-------7h9-6h7h9--|
 ----------------------------------|
 ----------------------------------|
 ----------------------------------|
 ----------------------------------|

|-----------------------------------------5h9p5-------
|-6h9p6-----6h9p6-----6h9p6-----6h9p6-----------7-6-9-
|-------7-6-------7-6-------7-6-------7-6-------------
|-----------------------------------------------------
|-----------------------------------------------------
|-----------------------------------------------------

repeat this bar a few times...
 -----------------------------------------5h9p5---------
 -6h9p6-----6h9p6-----6h9p6-----6h9p6-----------7-6---9-
 -------7-6-------7-6-------7-6-------7-6-----------6---
 -------------------------------------------------------
 -------------------------------------------------------
 -------------------------------------------------------

|-----------------------------------|
|-----------------------------------|
|-----------------------------------|
|-----------------------------------|
|-44444-4444444-4444-4444-4444444---|
|-44444-4444444-4444-4444-4444444---|

|-----------------------------------|
|-----------------------------------|
|-----------------------------------|
|-----------------------------------|
|-44444-4444444-4444-4444-4444444---|
|-44444-4444444-4444-4444-4444444---|

|-----------------------------------|
|-----------------------------------|
|-----------------------------------|
|-----------------------------------|
|-44444-4444444-4444-4444-4444444---|
|-44444-4444444-4444-4444-4444444---|

|---------------9p5-----------9p5--------------|
|-------------------7h9-6h7h9-----7h9-6h9p6h9--|
|----------------------------------------------|
|----------------------------------------------|
|-44444-4444444--------------------------------|
|-44444-4444444--------------------------------|

|---------------------------------|
|---------------------------------|
|---------------------------------|
|---------------------------------|
|-44444-4444444-444-444-4444444---|
|-44444-4444444-444-444-4444444---|

|---------------9p5-----------9p5--------------|
|-------------------7h9-6h7h9-----7h9-6h9p6h9--|
|----------------------------------------------|
|----------------------------------------------|
|-44444-4444444--------------------------------|
|-44444-4444444--------------------------------|


|---------------------------------|
|---------------------------------|
|---------------------------------|
|---------------------------------|
|-44444-4444444-444-444-4444444---|
|-44444-4444444-444-444-4444444---|

|---------------9p5-----------9p5--------|
|-------------------7h9-6h7h9-----7h9-7--|
|----------------------------------------|
|----------------------------------------|  [--------THE END------]
|-44444-4444444--------------------------|
|-44444-4444444--------------------------|
comments
print report bad tab
6 comments total. Showing first comments.
0 reply
AlucardXIX wrote on June 25 2009, 09:50 pm

Awesome dude! Good job! My Mark The Lines tab is up now.

+1 reply
HiJackTH1S wrote on June 26 2009, 12:07 pm

This tab is DEAD ON perfect.

0 reply
Punkrocker94 wrote on June 28 2009, 03:02 am

I.love.you:D

I want to post or [tab]
guest
You may want to rate the tab now too:
select rating
Please do not post tabs as comments. Select "correction" instead!