Oops, an error
Loading. Please wait.

Holy Mess Tab

3,152 views 3 this week
1 commentread comment
1 2 3 4 5
excellent!
x 7
add to favorites launch autoscroll
font size
0
reset
Autoscroll
+/-
esc
set tempo
stop
Contributor
Difficulty
advanced
WARNING: You are trying to view
                                    content from Ultimate-Guitar.com
                                    in an unauthorized application,
                                    which is prohibited.

                                    Please use an official Ultimate
                                    Guitar Tabs application for iPhone,
                                    iPad or Android to access legitimate
                                    chords, guitar, bass, and drum tabs
                                    from Ultimate-Guitar.com database.

                                    Type "ultimate guitar tabs" in Apple
                                    App Store's or Android Market's
                                    search to find the application.
"Holy Mess"

BY: WITHIN THE RUINS

Transcribed by Joe Keller
jkguitar@comcast.net

Please Do Not Copy without Permission.

THANKS AND ENJOY!

Tuning
G# D# G# C# F A#


you know the deal..

h= hammer on
p= pull off
/ \= slides
*= harmonic
^= bend
s= speed pick
~= vibr.

ect....


|--------------------------------------------------------------------|
|--------------------------------------------------------------------|
|--------------------------------------------------------------------|
|-----------------------------------11---7h9h11----------------4-7-6-|
|---5---2h4---2h4---4-------------------------------8h11---4h8-------|
|-2---2-----2-----2---2-2-222-222-0----0--------000------0-----------|

 ------------------------------------------------------------------------|
 ------------------------------------------------------------------------|
 ------------------------------------------------------------------------|
 ------------------------------------------------------------------------|
 ---5---2h4---2h4---4---------------5---2h4h5-----4-------11-12-14-12-11-|
 -2---2-----2-----2---2-2-222-2-2-0---0-------0-0---0-/12----------------|

  ------------------------------------------------------------|
  ------------------------------------------------------------|
  ------------------------------------------------------------|
  -----------------------------------11---7h9h11--------------|
  ---5---2h4---2h4---4-------------------------------8h11---4-|
  -2---2-----2-----2---2-2-2-2-2-2-0----0--------000------0---|

 ------------------------------------------------------------------------|
 ------------------------------------------------------------------------|
 ------------------------------------------------------------------------|
 ------------------------------------------------------------------------|
 ---5---2h4---2h4---4---------------5---2h4h5-----4-------11-12-14-12-11-|
 -2---2-----2-----2---2-2-222-222-0---0-------0-0---0-/12----------------|

 -----------------------------------------------------------------------------------|
 -----------------------------------------------------------------------------------|
 -----------------------------------------------------------------------------------|
 -9h11p9-------------------------------------------11---9---7---6h7-4---------------|
 --------12-11-11h12p11-8-9-12---12---12---9h11h12----------------------------------|
 ------------------------------0----0----0------------0---0---0-------0-0-0-000-000-|

 ----------------------------------------------------------------------------------|
 ----------------------------------------------------------------------------------|
 -----------------------------------------------6----------------------------------|
 -----6---7---4---7-------7-----------6h9p6p0-6---7-----3-6p3----------------------|
 -444---4---4---4-----4h9---9-4-5-----------------------------4-5-----4-5-2---2-4--|
 -------------------4-------------4-4---------------4-4-----------2-2-------2------|

 -------------------------------------------------------------------------|
 -------------------------------------------------------------------------|
 -------------------------------------------------------------------------|
 ------------------------11---9---7---6h7-4-------------------6---7---9---|
 -12---12---12---9h11h12----------------------------------444---4---4---4-|
 ----0----0----0------------0---0---0-------0-0-0-000-000-----------------|

 ----------------------------------------------------------------------------------|
 ----------------------------------------------------------------------------------|
 ----------------------------------------------------------------------------------|
 -9---9---9---6---7---4---0--------------------------------------------------------|
 -----------------------------0h2h4-5---5---5---2---4---4-5-12---12---12---9h11h12-|
 ---0---0---0---0---0---0---0---------0---0---0---0---2--------0----0----0---------|

 ------------------------------------------------------------------------------------|
 ------------------------------------------------------------------------------------|
 ------------------------------------------------------------------------------------|
 -11---9---7---6h7-4-----------------------------9---9---9----------7----------------|
 ------------------------------------4---5---2---------------7h9h11-----11---9---4---|
 ----0---0---0-------444-444-333-333---3---3---2---0---0---0----------0----0---0---0-|

 ---------------------------------------------------------------------------|
 ---------------------------------------------------------------------------|
 ------------------------------------6p4------6h7p6p4-----4h6p4-------------|
 -6---6---4---6---7---6---4---3---4------7p4----------6-7-------6-3-4-6-7---|
 ---4---4---4---4---4---4---4---4-----------------------------------------4-|
 ---------------------------------------------------------------------------|

  -----------------------------------------|
  -----------------------------------------|
  ---6p4-----6h7p6p4---------------6-4-7-6-|
  -4-----7p4---------6-7-6h7p6-3-4---------|
  -----------------------------------------|
  -----------------------------------------|

|-----------------------------------------------------------------------------------|
|-----------------------------------------------------------------------------------|
|---6p4------6h7p6p4-----4h6p4---------------6p4------6h7p6p4---------------6-4-7-6-|
|-4-----7p4----------6-7-------6-3-4-6-7---4-----7p4----------6-7-6h7p6-3-4---------|
|----------------------------------------4------------------------------------------|
|-----------------------------------------------------------------------------------|

|--------------------------------------------------|
|--------------------------------------------------|
|--------------------------------------------------|
|--------------------------------------------------|
|-4-4-44-4--4-44-4--44-4---4-4-4-4--4-44-4--4-44-4-|
|-4-4-44-4--4-44-4--44-4---4-4-4-4--4-44-4--4-44-4-|

|------------------------------------------------------------------------------------------|
|------------------------------------------------------------------------------------------|
|------------------------------------------------------------------------------------------|
|------------------------------------------------------------------------------------------|
|-4-4-44-4--4-44-4--4444-4444--444-4444--444-4444-4444--444-4444--444-4444--4444-4444-4444-|
|-4-4-44-4--4-44-4--4444-4444--444-4444--444-4444-4444--444-4444--444-4444--4444-4444-4444-|

 --------------------------------------------------------|
 --------------------------------------------------------|
 --------------------------------------------------------|
 --------------------------------------------------------|
 -444-4444--4444-4444--444-4444--4444--4444-4444-4-4-4-4-|
 -444-4444--4444-4444--444-4444--4444--4444-4444-4-4-4-4-|

 -------------------------------------------------------------|-----------|
 -------------------------------------------------------------|-----------|
 -------------------------------------------------------------|-----------|
 ------9h11p9---------9h11p9---------9h11p9---------9h11p9----|-----------|
 -9h12--------12-9h12--------12-9h12--------12-9h12--------12-|-8h11p8h11-|
 -------------------------------------------------------------|-----------|

 ------------------------------------------------------------------|
 ------------------------------------------------------------------|
 ------------------------------------------------------------------|
 ------------------------------------------------------------------|
 -44-44-44-44-44-44-44-44-44--44----44-44-44-44-44-44-44-44-44--44-|
 -44-44-44-44-44-44-44-44-44--44----44-44-44-44-44-44-44-44-44--44-|

 --------------------------------------------------------------------|
 --------------------------------------------------------------------|
 --------------------------------------------------------------------|
 --------------------------------*4^---------------------------------|
 -44-44-44-44-44-44-44-44-44--44------44-44-44-44-44-44-44-44-44--44-|
 -44-44-44-44-44-44-44-44-44--44------44-44-44-44-44-44-44-44-44--44-|


 -----------------------------------------------------------------|
 -----------------------------------------------------------------|
 -----------------------------------------------------------------|
 -----------------------------------------------------------------|
 -44-44-44-44-44-44-44-44-/7-------44-44-44-44-44-44-44-44-44--44-|
 -44-44-44-44-44-44-44-44----8-5^--55-55-55-55-55-55-55-55-55--55-|

 ------------------------------------------------------------------|
 ------------------------------------------------------------------|
 ------------------------------------------------------------------|
 ------------------------------------------------------------------|
 -44-44-44-44-44-44-44-44-44--44----44-44-44-44-44-44-44-44-44--44-|
 -55-55-55-55-55-55-55-55-55--55----44-44-44-44-44-44-44-44-44--44-|

 -------------------------------------------------------------------|
 -------------------------------------------------------------------|
 -------------------------------------------------------------------|
 -------------------------------------------------------------------|
 -44-44-44-44-44-44-44-44-444-444---5---2h4---2h4-/9-12-------------|
 -44-44-44-44-44-44-44-44-444-444-2---2-----2-----------2-2-222-222-|

 ------------------------------------------------------------------|
 ------------------------------------------------------------------|
 ------------------------------------------------------------------|
 ----------------------------4-7p6---------------------------------|
 ---5---2h4---2h4-8h11---4h8---------5---2h4---2h4---4-------------|
 -2---2-----2----------0-----------2---2-----2-----2---2-2-222-222-|

 --------------------------------------------------------------------|
 --------------------------------------------------------------------|
 --------------------------------------------------------------------|
 -------------------7------------------------------------------------|
 ---5---4h5---4h5-------9h11---9h11---5---2h4---2h4-9/12-------------|
 -0---0-----0-----6---6------6------2---2-----2----------2-2-222-222-|

 ------------------------------------------------------------------|
 ------------------------------------------------------------------|
 ------------------------------------------------------------------|
 ----------------------------4-7p6---------------------------------|
 ---5---2h4---2h4-8h11---4h8---------5---2h4---2h4---4-------------|
 -2---2-----2----------0-----------2---2-----2-----2---2-2-222-222-|

 ------------------------------------|
 ------------------------------------|
 ------------------------------------|
 -------------------7----------------|
 ---5---4h5---4h5-------9h11---11/12-|
 -0---0-----0-----6---6------6-------|

|-----------------------------------------------------|
|-----------------------------------------------------|
|-----------------------------------------------------|
|----11s-9s-7s----11s-9s-12s----11s-9s-7s-------------|
|-9s-----------8s------------9s-----------5s-7s-4s-8s-|
|-----------------------------------------------------|

 ------------------------------------------|
 ------------------------------------------|
 ------------------------------------------|
 ----11s-9s-7s----11s-9s-12s---------------|
 -9s-----------8s------------9s-11s-8s-11s-|
 ------------------------------------------|

 -----------------------------------------------------|
 -----------------------------------------------------|
 -----------------------------------------------------|
 ----11s-9s-7s----11s-9s-12s----11s-9s-7s-------------|
 -9s-----------8s------------9s-----------5s-7s-4s-8s-|
 -----------------------------------------------------|

 --------------------------------------------------------------------------------|
 --------------------------------------------------------------------------------|
 --------------------------------------------------------------------------------|
 ----11s-9s-7s----11s-9s-12s----------------------------------7-11-9-7----7-9-11-|
 -9s-----------8s------------9--9h11p9-8-11-12\-4-4-4-4-4-4-4----------11--------|
 -----------------------------------------------4-4-4-4-4-4-4--------------------|

 ---------------------------------------------------------------------------------------|
 ---------------------------------------------------------------------------------------|
 ---------------------------------------------------------------------------------------|
 -------------------------------------7-11-9-7----7-9-11----------------7-11-9-7--------|
 -4-4-4-4-4-4-4-x\--4--4--4-4-4-4-4-4----------11---------4-4-4-4-4-4-4----------7-9-11-|
 -4-4-4-4-4-4-4-x\--4--4--4-4-4-4-4-4---------------------4-4-4-4-4-4-4-----------------|

 ------------------------------------------------------------|
 ------------------------------------------------------------|
 -----------------------------------------9--9--------14--13-|
 -------------------7-11-9-7----7----------------------------|
 -4--4--4-4-4-4-4-4----------11---9-------7--7--------12--11-|
 -4--4--4-4-4-4-4-4-----------------0--0--------0--0---------|

 -------------------------------------------------------------------------------------|
 -------------------------------------------------------------------------------------|
 -------------------------------------------------------------------------------------|
 -------------------7-11-9-7----7-9-11----------------7-11-9-7------------------------|
 -4--4--4-4-4-4-4-4----------11---------4-4-4-4-4-4-4----------7-9--4--4--4-4-4-4-4-4-|
 -4--4--4-4-4-4-4-4---------------------4-4-4-4-4-4-4---------------4--4--4-4-4-4-4-4-|

 --------------------------------------------------------------------|
 --------------------------------------------------------------------|
 -----------------------9--9--------14--13--------9--9--------14--13-|
 -7-11-9-7----7------------------------------------------------------|
 ----------11---9-------7--7--------12--11--------7--7--------12--11-|
 -----------------0--0--------0--0----------0--0--------0--0---------|

 ---------------------------------------------------------------------------------|
 ---------------------------------------------------------------------------------|
 ---------------------------------------------------------------------------------|
 ------------------------------------------------------------*4^------------------|
 -4--4-44--4-44-44--4-44-44--4-44-44--4-44-44--4-44--4-44-44-----4-44-44--4-44-44-|
 -4--4-44--4-44-44--4-44-44--4-44-44--4-44-44--4-44--4-44-44-----4-44-44--4-44-44-|

 --------------------------------------------------------------------|
 --------------------------------------------------------------------|
 --------------------------------------------------------------14-13-|
 --------------------------------------------------------------------|
 -4-44-44--4-44--4-44-44--444-4--4-44-44--4-44--4-44-4---------12-11-|
 -4-44-44--4-44--4-44-44--444-4--4-44-44--4-44--4-44-4-0--0000-------|

 ----------------------------------------------------------------------------------------------|
 ----------------------------------------------------------------------------------------------|
 ----------------------------------------------------------------------------------------------|
 ------------------------------------------------4-7-3-6----11-9----9-11-9-----12-12-12-9-11\7-|
 -5--5-55--5-55-55--5-55-55--5-55-55--5-55-55-44---------4-------11--------11------------------|
 -6--6-66--6-66-66--6-66-66--6-66-66--6-66-66-44---------4-------------------------------------|

 -------------------|-------------------------------------------------|
 -------------------|-------------------------------------------------|
 -------------------|-11----11-14-11-------------------13-14-13-------|
 -6h7p6-------------|----11----------11-12-11-15-11-15----------15-11-|
 -------8-4h5p4-2-4-|-------------------------------------------------|
 -------------------|-------------------------------------------------|

 --------------------------------------------------------------|
 --------------------------------------------------------------|
 -11----11-14-11-----------------------------------------------|
 ----11----------11-12-11-12-11----11--------------------------|
 -------------------------------14----14-12-11-12--------------|
 --------------------------------------------------------------|

 --------------------------------------------------------------|
 --------------------------------------------------------------|
 --------------------------------------------------------------|
 -4---4-3/4---4-3/4---4-3/4-4-3/4------------------------------|
 -4-4-4-3-4-4-4-3/4-4-4-3/4-4-3/4----5--5-5-5-5-5-5-5-5-5-5-5--|
 ---4-------4-------4-------------4s-6--6-6-6-6-6-6-6-6-6-6-6--|

 -------------------------------------------------------------------------------|
 -------------------------------------------------------------------------------|
 -------------------------------------------------------------------------------|
 -------------------------------------------------------------------------------|
 ----5--5-5-5-5-5-5-5-5-5-5-5----5-5-55-5-5-55-555-5-5----5-5--55-5--5-55-5-55--|
 -4s-6--6-6-6-6-6-6-6-6-6-6-6-4s-6-6-66-6-6-66-666-6-6-4s-6-6--66-6--6-66-6-66--|

 ---------------------------------------|
 ---------------------------------------|
 ---------------------------------------|
 ---------------------------------------|        [  THE END  ]
 -555-5-5-55-5--5-55-5-55-555-----------|
 -666-6-6-66-6--6-66-6-66-666-----------|
1 comment total.
0 reply
SlasheR wrote on August 7 2009, 09:27 am

****in sick!

I want to post or [tab]
guest
You may want to rate the tab now too:
select rating
Please do not post tabs as comments. Select "correction" instead!