Oops, an error
Loading. Please wait.

Invade Tab

ver1
ver1

Whole song

More versions @911Tabs.com
33,358 views 51 this week
13 commentsread comments
1 2 3 4 5
excellent!
x 12
Autoscroll
+/-
esc
set tempo
stop
Contributor
Difficulty
advanced
WARNING: You are trying to view
                                    content from Ultimate-Guitar.com
                                    in an unauthorized application,
                                    which is prohibited.

                                    Please use an official Ultimate
                                    Guitar Tabs application for iPhone,
                                    iPad or Android to access legitimate
                                    chords, guitar, bass, and drum tabs
                                    from Ultimate-Guitar.com database.

                                    Type "ultimate guitar tabs" in Apple
                                    App Store's or Android Market's
                                    search to find the application.
"INVADE"

BY: WITHIN THE RUINS

Transcribed by Joe Keller
[jkguitar@comcast.net]
YOUTUBE.com/v8eatr

VIDEO:
http://www.youtube.com/watch?v=hQMkUlqD8pY

Please Do Not Copy without Permission.



THANKS AND ENJOY!

Tuning
G# D# G# C# F A#


you know the deal..

h	= hammer on
p	= pull off
/ \	= slides
*	= harmonic
^	= bend
s	= speed pick
~	= vibr.
|	= break; start/end bar

ect....

	[InTRO]
|---------------------------------|
|---------------------------------|
|---------------------------------|
|---------------------------------|
|----9---------4----------4-------|
|-4/---7-6-0-3---3--3-0-3---6-3-4-|

|----------------------------------------------9-7-9-----|
|-/7---7-/10-9-10-/14~--/10-9-----------9-7-9--------9~--|
|----6------------------------11-10\6~-------------------|
|--------------------------------------------------------|
|--------------------------------------------------------|
|--------------------------------------------------------|

 ---------------------------------------------------------|
 -/7---7-/10-9-10-/14~--/10-9-----------9-7-9--10-9-10-6~-|
 ----6------------------------11-10-6~--------------------|
 ---------------------------------------------------------|
 ---------------------------------------------------------|
 ---------------------------------------------------------|

|-------------------------------------------------------------------|
|-------------------------------------------------------------------|
|-------------------------------------------------------------------|
|-/11-------/9----------/11-----9-------/11---------9---------------|
|-----12-9-----11-8---------12----11-8------12-9------11-8----8-11~-|
|-------------------11---------------------------11--------11-------|

 -------------------------------------------------------|
 -------------------------------------------------------|
 -------------------------------------------------------|
 ---------------/11------9------------------------------|
 -44444-44444-------12-9---11-8\-444-444-44444-----8-11-|
 -44444-44444--------------------444-444-44444--11------|

 -------------------------------------------------------|
 -14-14-14-14-10-10-10-10-------------------------------|
 -------------------------------------------------------|
 --------------------------------------/11------9-------|
 -------------------------44444-44444------12-9---11-8\-|
 -------------------------44444-44444-------------------|

 ------------------------------------------------|
 ------------------------14-14-14-14-14-14-14-10-|
 ------------------------------------------------|
 ------------------------------------------------|
 -444-444-44444-----8-11-------------------------|
 -444-444-44444--11------------------------------|

|----------------------------------------------------------------|
|-14s-10s-12s----------------------------------------------------|
|-------------11s-10s-11s-13s--------------------10s-11s-13s-14s-|
|-----------------------------11s-9s-11s-12s-14s-----------------|
|----------------------------------------------------------------|
|----------------------------------------------------------------|

|--------------------------------------------------------------------|
|--------------------------------------------------------------------|
|--------------------------------------------------------------------|
|----------------------------------------------------------11-9h11p9-|
|-44444--3-4-6----9---------4---------4-------------4----------------|
|-44444--3-4-6-/7---77-6-/6---0-3-0-6---3--3-0-3-/6---33-0-----------|

-----------------------------------------------------------------|
-----------------------------------------------------------------|
-----------------------------------------------------------------|
-----------------------------------------------------------------|
-12-11-8-9-11-*12~--3-4-6----9---------4---------4-------------4-|
--------------------3-4-6-/7---77-6-/6---0-3-0-6---3--3-0-3-/6---|

 ------9-7h9p7-------------------------------------------------|
 --------------10-9-6-7-9-10~----------------------------------|
 --------------------------------------------------------------|
 --------------------------------------------------------------|
 ------------------------------3-4-6----9--------4---------4---|
 -33-0-------------------------3-4-6-/7---7-6-/6---0-3-0-6---3-|

 ----------------------------------------------------------|
 ----------------------------------------------------------|
 ----------------------------------------------------------|
 ----------------------------------------------------------|
 ----------4-----------------------------3-4-6----9--------|
 -3-0-3-/6---33-0-11-9h11p9-7-6-7-4-3-4~-3-4-6-/7---7-6-/6-|

----------------------------------------------------------------|
----------------------------------------------------------------|
----------------------------------------------------------------|
-------------------------------11-9h11p9------------------------|
-4---------4-------------4---------------12-11-8-9-11-*12~-4444-|
---0-3-0-6---3~-3-0-3-/6---3-0-----------------------------4444-|

|-9p5------------9p5-----------9p5----------|
|-----h7----h7-------h7----h7------h7----h7-|
|--------h6-------------h6------------h6----|
|-------------------------------------------|
|-------------------------------------------|
|-------------------------------------------|

 -9p5-----------9p5-----------9p5----------|
 -----h7----h7------h7----h7------h7----h7-|
 --------h6------------h6------------h6----|
 ------------------------------------------|
 ------------------------------------------|
 ------------------------------------------|

 ---------------------------------------------------------------|
 -7p6-----9--7p6-----9--7p6-----9--7p6-----9-7p6-------6h7h9/10-|
 -----7p6--------7p6--------7p6--------7p6-------7p6h7----------|
 ---------------------------------------------------------------|
 ---------------------------------------------------------------|
 ---------------------------------------------------------------|

 ----------------------------------------------------------|
 --------7--9--------7--9--------7--9--------7--9--------7-|
 -6/7h10------6/7h10------6/7h10------6/7h10------6/7h10---|
 ----------------------------------------------------------|
 ----------------------------------------------------------|
 ----------------------------------------------------------|

 ----------9h14-----------9h14----------9h14-|
 -10----10-------10----10------10----10------|
 ----11-------------11------------11---------|
 --------------------------------------------|
 --------------------------------------------|
 --------------------------------------------|

 ----------9h14p9------------------7h9-|
 -10----10--------10-9h10p9\7h9h10-----|
 ----11--------------------------------|
 --------------------------------------|
 --------------------------------------|
 --------------------------------------|

 -----------------------------------|
 -7-7-10-10-9-9-7---10-10-9-9-6-6-9-|
 -----------------------------------|
 -----------------------------------|
 -----------------------------------|
 -----------------------------------|

 ---------------7h9h10h14-|
 -9-10-9-7h9h10-----------|
 -------------------------|
 -------------------------|
 -------------------------|
 -------------------------|

|-----------------------------------------------------|
|-----------------------------------------------------|
|-----------------------------------------------------|
|-----------------------------------------------------|
|-4444444--444-444-4-4--4-4-4444444--6-5--2--2-2--2-2-|
|-4444444--444-555-5-5--5-5-4444444--7-6--3--3-3--3-3-|

------------------------------------------------------------------|
------------------------------------------------------------------|
------------------------------------------------------------------|
------------------------------------------------------------------|
-4-4444-4--3333-3333--4-4--4-4--4s--6-5--2--2-2--2-2--2--2-2--2-2-|
-4-4444-4--4444-4444--5-5--5-5--4s--7-6--3--3-3--3-3--3--3-3--3-3-|

 ---------------------------------------------------------|
 ---------------------------------------------------------|
 ---------------------------------------------------------|
 ---------------------------------------------------------|
 -2-2222-2---2-2-2-2---2-2222-2--------2-2-2-2------------|
 -3-3333-3---3-3-3-3---3-3333-3---2222-3-3-3-3---3^-3^-3^-|

-----------------------------------------------------------------|
-----------------------------------------------------------------|
-----------------------------------------------------------------|
-----------------------------------------------------------------|
-2-1-1-1-1-1-1-3-2-1-1-1-1-1-1-1-2-1-1-1-1-1-1-3-2-1-1-1-1-1-1-1-|
-3-2-2-2-2-2-2-3-3-2-2-2-2-2-2-2-3-2-2-2-2-2-2-3-3-2-2-2-2-2-2-2-|

 ------------------------------9------------|
 ---------------/7---7-/10-9-7---7-6-7-6-7~-|
 -11-\--16s--\-----6------------------------|
 -9--\--------------------------------------|
 -9--\--14s--\------------------------------|
 -------------------------------------------|

----------------9----------------------------------------------|
-/7---7-/10-9-7---7-6-7-6-7~-----------------------------------|
----6----------------------------------------------------------|
---------------------------------------------11-11-12-12-------|
-----------------------------14-14-9-9-14-14-------------14-14-|
---------------------------------------------------------------|

 -------------------------------------------------------------|
 -------------------------------------------------------------|
 -------------------------------------------------------------|
 -11-11-12-12-16-16-12-12-11-11-------------------11-11-12-12-|
 -------------------------------14-14-13-13-14-14-------------|
 -------------------------------------------------------------|

 -------------------------------------------------------------|
 -------------------14-14-15-15-------14-14-15-15-19-19-15-15-|
 -16-16-11-11-16-16-------------16-16-------------------------|
 -------------------------------------------------------------|
 -------------------------------------------------------------|
 -------------------------------------------------------------|

 -------------------------------------------------------999-|
 -----------------------------------------------------------|
 -14-14-------------------14-14-15-15--------------11-------|
 -------16-16-15-15-16-16---------------11-11-11------8-----|
 ------------------------------------------------9----------|
 -------------------------------------8---------------------|

---------------------------------------------------------------|
---------------------------------------------------------------|
---------------------------------------------------------------|
---999---8-----------------------11-11-12-12-------11-11-12-12-|
-------------999-14-14-9-9-14-14-------------14-14-------------|
-5-----4---4---------------------------------------------------|

 ----------------------------------------------------|
 ----------------------------------------------------|
 ----------11----------------------------------------|
 -8---8-11----11-8------999-------------888----------|
 ---9--------------9-10-----10--------9-----9--------|
 ------------------------------12^-9^---------11^-8^-|

----------------------------------------------------------------|
----------------------------------------------------------------|
-------11-11h12p11h16--------11-11h12p11h16---------------------|
---/12-------------------/12-------------------12-----11---8888-|
----------------------------------------------------------------|
-9---------------------9--------------------9^-----8^----4------|

----------------------14-15-14-15-19-18-18h19p18-22-21-19-18-19~-|
-----------------------------------------------------------------|
-------11-11h12p11h16--------------------------------------------|
---/12-----------------------------------------------------------|
-----------------------------------------------------------------|
-9---------------------------------------------------------------|

 --------------------------------------------------------|
 --------------------------------------------------------|
 -------11-11h12p11h16-----------7--------11-11h12p11h16-|
 ---/12-------------------------------/12----------------|
 --------------------------------5-----------------------|
 -9---------------------9^-9^-4^----9--------------------|

 -14-15-14-15-19-18-18h19p18-22-21-19-18-19~-|
 --------------------------------------------|
 --------------------------------------------|
 --------------------------------------------|
 --------------------------------------------|
 --------------------------------------------|

	[Solo]
|--------------------------------------------------------------|
|-12\7-----------------------/12-11-12-/15-14-15-15^-15-14-14~-|
|------7-7h9-7-6-6h7p6-7-\3~-----------------------------------|
|--------------------------------------------------------------|
|--------------------------------------------------------------|
|--------------------------------------------------------------|

-----19---------------------15----14-15-12-14----------------------|
-----------19-20-17-19---------------------------------------------|
-/16----16--------------/12----12-------------/12~-11-/16-15-16-18s|
-------------------------------------------------------------------|
-------------------------------------------------------------------|
-------------------------------------------------------------------|

|----------------------------------|
|----------------------------------|
|----------------------------------|
|----------------------------------|
|-9999-8------9999-8------9999-8---|
|--------5-4---------5-4---------5-|

|----------------------------------------------------------|
|------------------------------------------------------777-|
|----------------------------------------------------------|
|-----------------------------------------/7-6---10~-------|
|-9999-8-----99-8------9999-8----/9-8----------8-----------|
|--------5-4------5-4^--------4^------5-4------------4-----|

 ----------------------------------------------------------|
 ------------------------------------------------------777-|
 ----------------------------------------------------------|
 -----------------------------------------/7-6---10~-------|
 -9999-8-----99-8------9999-8----/9-8----------8-----------|
 --------5-4------5-4^--------4^------5-4------------4-----|

 -----------------------------------------------------------|
 -----------------------------------------------------------|
 -----------------------------------------------------------|
 -----------------------------------------------------------|
 -444-444-3s-3-3-3-3--3s-3-3-3--3s-3-3-3s-3-3-3-3--3s-3-3-3-|
 -444-444-3s-3-3-3-3--3s-3-4-4--3s-3-3-3s-3-3-3-3--3s-3-4-4-|

 ------------------------------------------------------|
 --------------------11--------------11-------------11-|
 ---------------11--------------11-------------11------|
 ------------------8---------------8--------------8----|
 -3s--3-3--99999----------99999----------99999---------|
 -3s--3-3----------------------------------------------|

 ----------------------------------------------------------|
 ------------11--------------------------------------------|
 -------11-------------------------------------------------|
 ----------8-----------------------------------------------|
 -99999----------3s---3s--3-3-3-3s-3-3-3s-3-3-3-3-3s-3-3-3-|
 ----------------3s---3s--3-4-4-3s-3-3-3s-3-3-3-3-3s-3-4-4-|

 -----------------------------------------------------|
 -----------6-9-------------------6-9-----------------|
 -----------------------------------------------------|
 -----------3-6-------------------3-6-----------------|
 -3s-3-3-3s-----3s-3-4-7-------3s-----3s-3-4-7--------|
 -3s-3-3-3s-----3s-3-4-7-3-4-7-3s-----3s-3-4-7-3-4-7\-|
13 comments total. Showing first comments.
+2 reply
jk-guitar wrote on September 8 2010, 01:23 pm

once again... flawless.

0 reply
JasonH420 wrote on September 8 2010, 02:16 pm

Knee deep in what we LOVE!! 5 stars all day splitsoul!!! Your the man NO Bullshit!!!

+3 reply
midgitmanxx wrote on September 11 2010, 02:19 am

There any way you could guitar pro this? It seems that no one guitar pro's these guys.

I want to post or [tab]
guest
You may want to rate the tab now too:
select rating
Please do not post tabs as comments. Select "correction" instead!