Oops, an error
Loading. Please wait.

The Book Of Books Tab

6,701 views 6 this week
3 commentsread comments
1 2 3 4 5
excellent!
x 9
Autoscroll
+/-
esc
set tempo
stop
Contributor
Hey! There's an official Ultimate Guitar app which is ideal
for learning songs when you're away from computer. Get the app
WARNING: You are trying to view
                                    content from Ultimate-Guitar.com
                                    in an unauthorized application,
                                    which is prohibited.

                                    Please use an official Ultimate
                                    Guitar Tabs application for iPhone,
                                    iPad or Android to access legitimate
                                    chords, guitar, bass, and drum tabs
                                    from Ultimate-Guitar.com database.

                                    Type "ultimate guitar tabs" in Apple
                                    App Store's or Android Market's
                                    search to find the application.
"The Book of BOoks"

BY: WITHIN THE RUINS

Transcribed by Joe Keller
jkguitar@comcast.net

Please Do Not Copy without Permission.

VIDEO:
http://www.youtube.com/watch?v=MSnPONqPr8I

THANKS AND ENJOY!

Tuning
G# D# G# C# F A#


you know the deal..

h= hammer on
p= pull off
/ \= slides
*= harmonic
^= bend
s= speed pick
~= vibr.

ect....

|-------------------------------------------------------------|
|-------------------------------------------------------------|
|-6-----------------------------------------------------------|
|-3----7----------------------------7-------------------------|
|----------5---4-8-4-9------------------5---4-8-4-9--2s-4s-5s-|
|----4---4---4---------4--4--4--4-4---4---4-------------------|

 ------------------------------------------------------------9p5-----|
 ------------------------------------------------------9-6-------6h9-|
 ----------------------------------------------------6-----6---------|
 ---7-----------------------7h11p7-4h7p4-----------------------------|
 -------5---4-8-4-9------------------------5---4---8-----------------|
 -4---4---4---------4--4--4--------------4---4---4-------------------|

  ----------------------------------------------------|
  ----------------------------------------------------|
  -------------------------*6~--4-----4---------------|
  -----------6s-------------------7-6---7-6-6h7p6-3-4-|
  -4s-8s--4s-----4s-8s-4h8----------------------------|
  ----------------------------------------------------|

  -----------------------------------------------------------|
  -----------------------------------------------------------|
  -----------------------------------------------------------|
  ---7-----------------------------7-------------------------|
  -------5---4-8-4-9-4-4--4-4--4-------5---4-8-4-9--2s-4s-5s-|
  -4---4---4---------4-4--4-4--4-4---4---4-------------------|

  -------------------------------------------------------9p5-----|
  -------------------------------------------------9-6-------6h9-|
  -----------------------------------------------6-----6---------|
  ---7-----------------------------7-----------------------------|
  -------5---4-8-4-9-4-4--4-4--4-------5---4-8-4-----------------|
  -4---4---4---------4-4--4-4--4-4---4---4-----------------------|

 --------------------------------------------------------------9-7-----------------|
 -----------------------------------------------------7-10-9-7-----9-10-7-10-9-6-7-|
 ----------------------------------------------------------------------------------|
 ----------6s----------6s-----------10s-----------10s------------------------------|
 -4s-8s-4s----4s-8s-4s----8s-11s-8s-----8s-11s-8s----------------------------------|
 ----------------------------------------------------------------------------------|

  -----------------------------------------------------------------|
  -----------------------------------------------------------------|
  -----------------------------------------------------------------|
  -4p0-------4p0---6p0-------7-----4p0-------4p0---6p0-------7-----|
  -----2-4-4-----2-----4-5-5---5-5-----2-4-4-----2-----4-5-5---5-5-|
  -----------------------------------------------------------------|

  -----------------------------------------------------------------|
  -----------------------------------------------------------------|
  -----------------------------------------------------------------|
  -------------------------------------------3---------------------|
  -4p0-------------4p0---------------4---5-------------------------|
  -----3-4-4-7-4-3-----3-4-4-7-4-3-3---3---3---3-3-333-333-333-333-|

  ---------9p5-------------9p5-------------9p5-------------9p5-----|
  ---9-6-------6h9---9-6-------6h9---9-6-------6h9---9-6-------6h9-|
  -6-----6---------6-----6---------6-----6---------6-----6---------|
  -----------------------------------------------------------------|
  -----------------------------------------------------------------|
  -----------------------------------------------------------------|

  -------------------------------------------------------------------------|
  -------------------------------------------------------------------------|
  -------------------------------------------------------------------------|
  ---------------------------------12-9---9-12-9---9---9-12/16-16-12-12-15-|
  -4p0-------------4p0------------------8--------8---8---------------------|
  -----3-4-4-7-4-3-----3-4-4-7-4-3-----------------------------------------|

 ----------------------------------------------------------------------------|
 ----------------------------------------------------------------------------|
 -14-14--14/16-16-16/18-18--18-18-18--18\13-13--13-13-13--13\10-10--10-10-10-|
 ----------------------------------------------------------------------------|
 -12-12--12/14-14-14/16-16--16-16-16--16\11-11--11-11-11--11\8--8---8--8--8--|
 ----------------------------------------------------------------------------|

 ----------------------------------------------------------------------------|
 ----------------------------------------------------------------------------|
 ------------6---------------------------------------------------------------|
 ------4h7p4-------4h7p4-3h6p3-----------------------------------------------|
 -4-4-----------4--------------4~--4-4-44-4-4-44-4-4-44-4-4-44-4-4-44-4-4-44-|
 -4-4-----------4------------------4-4-44-4-4-44-4-4-44-4-4-44-4-4-44-4-4-44-|

 -14p9----------9------------------------------------------------------------|
 ------10----10---10p9-------------------------------------------------------|
 ---------11-----------11-10h11-11-------------------------------------------|
 ----------------------------------------------------------------------------|
 ----------------------------------4-4-44-4-4-44-4-4-44-4-4-44-4-4-44-4-4-44-|
 ----------------------------------4-4-44-4-4-44-4-4-44-4-4-44-4-4-44-4-4-44-|

  -14p9----------9---------------------------------------------------|
  ------10----10---10p9----------------------------------------------|
  ---------11-----------11-10h11-11---------------6--10--6s--11s-10s-|
  ------------------------------------------------3--6---3s--7s--6s--|
  ----------------------------------5-5-55-5-5-55--------------------|
  ----------------------------------6-6-66-6-6-66--------------------|

 -----------------------------------------------------------------------|
 -----------------------------------------------------------------------|
 -----------------------------------------------------------------------|
 -----------------------------------------------------------------------|
 -4-3-4-7-6-4-3-444--444-3-4-7-6-444-3----------------/12~--------------|
 -4-3-4-7-6-4-3-444--444-3-4-7-6-444-3-7-6-7-11-9-7-6------7-6-7-11-9-6-|

 ---------------------------------------------------------------------------|
 ---------------------------------------------------------------------------|
 ---------------------------------------------------------------------------|
 ---------------------------------------------------------------------------|
 -4-3-4-7-6-4-3-444--444-3-4-7-6-444-3-444-3-4-7-6-444-3-4--444-3-4-7-6-4-3-|
 -4-3-4-7-6-4-3-444--444-3-4-7-6-444-3-444-3-4-7-6-444-3-4--444-3-4-7-6-4-3-|

  ---------------------------------------------------------------|
  ---------------------------------------------------------------|
  ---------------------------------------------------------------|
  -14-14-14-14-14-14-14-14-16-16-16-16-16-16-11-11-11-11-11-11-4-|
  -12-12-12-12-12-12-12-12-14-14-14-14-14-14-11-11-11-11-11-11-4-|
  -12-12-12-12-12-12-12-12-14-14-14-14-14-14-11-11-11-11-11-11-4-|

 |--------------------------------------------|
 |-------9h10-9h10-------9h12-9h12-------9h10-|
 |-10h11-----------10h11-----------10h11------|
 |--------------------------------------------|
 |--------------------------------------------|
 |--------------------------------------------|

|-------------------9---------------------------------------------------------------|
|-------------6h7-9-----------------------------------------------------------------|
|---------6h7-----------------------------------------------------------------------|
|-----------------------------------------------------------------------------------|
|-4-4444---------------4444--4-44-4--4-4444--4-44-44--4444--4-44-4--4-4444--4-44-44-|
|-4-4444---------------4444--4-44-4--4-4444--4-44-44--4444--4-44-4--4-4444--4-44-44-|

 -----------------------------------------------------------------|
 -----------------------------------------------------------------|
 -----------------------------------------------------------------|
 -----3h4-3h4-----3h6-3h6-----3h4-----3h4-3h4-----3h6-3h6-----3h4-|
 -4h5---------4h5---------4h5-----4h5---------4h5---------4h5-----|
 -----------------------------------------------------------------|

 -----------------------------------------------------------------------------------9-|
 -----------------------------------------------------------------------------6h7-9---|
 -------------------------------------------------------------------------6h7---------|
 ------------------------------------3h4-3h4-----3h6-3h6p3----------------------------|
 -4-4444--4-44-4--4-4444-4-44-44-4h5---------4h5-----------5p4h5-4-4444---------------|
 -4-4444--4-44-4--4-4444-4-44-44---------------------------------4-4444---------------|

 ----------------------------------------------------------9-------------|
 --------------------------------6h7-9-----6h7-9-----6h7-9---9-7-6-------|
 ----------------------------6h7-------6h7-------6h7---------------7-6-4-|
 ---------------3h4p3----------------------------------------------------|
 -444--4-44-4---------5-4-3----------------------------------------------|
 -444--4-44-4------------------------------------------------------------|

 -------------------------------9---11-12-14-12-11-------------11-12-14-12-11-|
 -----6h7-9-----6h7-9-----6h7-9---9----------------------14-------------------|
 -6h7-------6h7-------6h7-----------------------------13----13----------------|
 -----------------------------------------------------------------------------|
 -----------------------------------------------------------------------------|
 -----------------------------------------------------------------------------|

 ----------11-12-14-12-11-------------------------------9-------------|
 ----14-----------------------6h7-9-----6h7-9-----6h7-9---9-7-6-------|
 -13----13----------------6h7-------6h7-------6h7---------------7-6-4-|
 ---------------------------------------------------------------------|
 ---------------------------------------------------------------------|
 ---------------------------------------------------------------------|

-------------------------------------------------------------------------------------------|
-----6h7-9-----6h7-9-----------------------------------------------------------------------|
-6h7-------6h7-------6666------------------------------------------------------------------|
-------------------------------3h4-3h4-----3h6-3h6-----3h4-----3h4-3h4-----3h6-3h6-----3h4-|
---------------------------4h5---------4h5---------4h5-----4h5---------4h5---------4h5-----|
-------------------------------------------------------------------------------------------|

 -----------------------------------------------------------------|
 -----------------------------------------------------------------|
 -----------------------------------------------------------------|
 -----3h4-3h4-----3h6-3h6-----3h4-----3h4-3h4-----3h6-3h6-----3h4-|
 -4h5---------4h5---------4h5-----4h5---------4h5---------4h5-----|
 -----------------------------------------------------------------|

 ---------------------------------------------------------------------------------------------|
 ---------------------------------------------------------------------------------------------|
 -------------------------------------------------------------6-------10----------------------|
 --------3------3-6------6-9----------------------------------3-------6-----------------------|
 -4--4h5----4h5------8h9-----8\-4--4444--4-4-44--4-4--4--4--4----4-4-----4444--4-4-44--4-4--4-|
 -------------------------------4--4444--4-4-44--4-4--4--4--4----4-4-----4444--4-4-44--4-4--4-|

----------------------------------------------------------------------------------------------|
----------------------------------------------------------------------------------------------|
----------------------------------------------------------------------------------------------|
----------------------------------------------------------------------------------------------|
-4-4-4-4-44-4-4-4-4-4444-4-44-4-4-4-4-4-4-4-44-4-4-4-4-4-4444-4-44-4-4-4-4--4444--4-4-44--4-4-|
-5-5-5-5-55-5-5-5-5-5555-5-55-5-5-5-5-5-5-5-55-5-5-5-5-5-5555-5-55-5-5-5-4--5555--5-5-55--5-5-|

 -----------------------------------------------------------------------------------------|
 -----------------------------------------------------------------------------------------|
 -----------------------------------------------------------------------------------------|
 -------------------------------------------3------3-6------6-9--------3-----6------9-----|
 -4-4-4-4-44-4-4-4-4-4444-4-4-4-4444-4--4h5----4h5------8h9-----8--4h5---5h8---8h11---4-4-|
 -5-5-5-5-55-5-5-5-5-5555-5-5-5-5555--------------------------------------------------4-4-|

 -----------------------------------------------------------------------------------------|
 -----------------------------------------------------------------------------------------|
 -----------------------------------------------------------------------------------------|
 ------11-------11-12-------3------3-6------6-9--------3-----6------9-----------11--3h6---|
 -9h12-----9h12-------8-4h5----4h5------8h9-----8--4h5---5h8---8h11---4-4--9h12---------4-|
 ---------------------------------------------------------------------4-4-----------------|

 ---------------------------------------------------------------------------------------|
 ---------------------------------------------------------------------------------------|
 ---------------------------------------------------------------------------------------|
 -----3------3-6------6-9--------3-----6------9-----------11-------11-12----------------|
 -4h5----4h5------8h9-----8--4h5---5h8---8h11---4-4--9h12-----9h12-------8--444-444-444-|
 -----------------------------------------------4-4-------------------------444-444-444-|

  --------------------------------------------------------------|
  --------------------------------------------------------------|
  --------------------------------------------------------------|
  --------------------------------------------------------------|
  -444-444---444---444-4---444---444-4--444-4-4---444-444-444-4-|
  -444-444---444---444-4---444---444-4--444-4-4---444-444-444-4-|

|-----------------------------------------------------------------------------------------|
|-----------------------------------------------------------------------------------------|
|-4h6p4-----------------------------------------------------4h6p4-------------------------|
|-------7-6-------3h4p3-------------------------------------------7-6-6h7p6-3-3h4p3---3-4-|
|-----------4--3--------4-2-4-44-44-4-44-44-4-44-44-4-44-44-------------------------4-----|
|-----------4--3----------2-4-44-44-4-44-44-4-44-44-4-44-44-------------------------------|

 ----------------------------------------------------------------------------|
 ----------------------------------------------------------------------------|
 ------------4-----------------4---------------------------------------------|
 ------3h6p3-------------3h6p3---3h6p3-----4---------------------------------|
 --------------------------------------4-----4-44-44-4-44-44-4-44-44-4-44-44-|
 -00-0---------00-00-0-0-----------------3---4-44-44-4-44-44-4-44-44-4-44-44-|

 -------------------------------------------------------------|
 -------------------------------------------------------------|
 -4h6p4-------------------------------------------------------|
 -------7-6-6h7p6-3-3h4p3---3-4-------------------------------|
 -------------------------4-----44-44-4-44-44-4-44-44-4-44-44-|
 -------------------------------44-44-4-44-44-4-44-44-4-44-44-|

 ------------------------------------------------------------------------------|
 ------------------------------------------------------------------------------|
 --------------4-----------------4---------------------------------------------|
 -4------3h6p3-------------3h6p3---3h6p3-----4---------------------------------|
 ----------------------------------------4-----4-44-44-4-44-44-4-44-44-4-44-44-|
 ---00-0---------00-00-0-0-----------------3---4-44-44-4-44-44-4-44-44-4-44-44-|

 --------------------------------------------------------------------|
 --------------------------------------------------------------------|
 -4h6p4--------------------------------------------------------------|
 -------7-6-6h7p6-3-3h4p3---3-4--------------------------------------|
 -------------------------4-----44-44---44-44--4--4-44-44---44-44--4-|
 -------------------------------44-44---44-44--4--4-44-44---44-44--4-|

 -------------------------------------------------------------|
 -6s---10s-9s---6s---10s-9s-----------------------------------|
 -6s---11s-10s--6s---11s-10s----------------------------------|  [ END ]
 -------------------------------------------------------------|
 -----------------------------4-44-44---44-44--4--4-44-44---4-|
 -----------------------------5-55-55---55-55--5--5-55-55---5-|
comments
print report bad tab
3 comments total.
0 reply
AlucardXIX wrote on July 8 2009, 05:26 pm

GOOD SHIT DUDE. Did you The Amazing Slow Downer?!

0 reply
SplitSoul wrote on July 8 2009, 07:57 pm

only for one small part. haha.

0 reply
SplitSoul wrote on July 19 2009, 09:04 pm

Tab is updated/corrected.
And heres the video link: http://www.youtube.com/watch?v=MSnPONqPr8I

I want to post or [tab]
guest
You may want to rate the tab now too:
select rating
Please do not post tabs as comments. Select "correction" instead!