Oops, an error
Loading. Please wait.

The Carouser Tab

4,019 views 3 this week
no commentswrite comment
1 2 3 4 5
excellent!
x 8
Autoscroll
+/-
esc
set tempo
stop
Contributor
Difficulty
intermediate
Hey! There's an official Ultimate Guitar app which is ideal
for learning songs when you're away from computer. Get the app
WARNING: You are trying to view
                                    content from Ultimate-Guitar.com
                                    in an unauthorized application,
                                    which is prohibited.

                                    Please use an official Ultimate
                                    Guitar Tabs application for iPhone,
                                    iPad or Android to access legitimate
                                    chords, guitar, bass, and drum tabs
                                    from Ultimate-Guitar.com database.

                                    Type "ultimate guitar tabs" in Apple
                                    App Store's or Android Market's
                                    search to find the application.
"The Carouser"

BY: WITHIN THE RUINS

Transcribed by Joe Keller
[Youtube user/V8EATR]
jkguitar@comcast.net

VIDEO:
http://www.youtube.com/watch?v=XpMzgwm-hpE

Please Do Not Copy without Permission.

THANKS AND ENJOY!

Tuning
G# D# G# C# F A#


h	= hammer on
p	= pull off
/ \	= slides
*	= harmonic
^/v	= bend
s	= speed pick
d^/v	= dive w/ bar (u/d)
~	= vibr.
|	= break; start/end bar


|-------------------------------------------------------------|
|-------------------------------------------------------------|
|-------------------------------------------------------------|
|-----------6p3--------6-------6p3--------6----------6p3------|
|-2-3--2-3------4----4---2-3-------4----4---2-3--2-3-----4----|
|-3-4--3-4--------2^-----3-4---------2^-----3-4--3-4-------2^-|

|-------------------------------|
|-------------------------------|
|-------------------------------|
|-/6-7--/9-10--9h10p9---6-9-----|
|---------------------7-----8-8-|
|---------------------------9-9-|

 ----------------11---------------------|
 -9-10-12-13--13------------------------|
 ---------------------------------------|
 ---------------------------------------|
 -------------------------------2-2-2-2-|
 --------------------10-9--6-3--3-3-3-3-|

 --------------------------------------|
 --------------------------------------|
 --------------------------------------|
 -/6-7--/9-10--------------------------|
 --------------------------------------|
 --------------10-10-6-9^--3-6^--2-*3^-|

 ------------------------------------|
 ------------------------------------|
 ------------------------------------|
 ----------10-----9-----6--2-2-2-2-3-|
 -8888---------------------2-2-2-2-3-|
 -------9^-----8^----5^----2-2-2-2-3-|

|-13-------13h16--13-------13h15-|
|-------13--------------13-------|
|----13--------------13----------|
|--------------------------------|
|--------------------------------|
|--------------------------------|

 ----------------------------------|
 -14-14-11-11--13------------------|
 ------------------15-13-12-12--10-|
 ----------------------------------|
 ----------------------------------|
 ----------------------------------|

|------------------------------------------------------------------|
|-----------------6---6/9---9/13----13\9---------------------------|
|------------------------------------------------------------------|
|-------------------3-----6------10------6-------------------------|
|-3333-33-3333-33---------------------------33-33-33-33333-3-33-33-|
|-3333-33-3333-33---------------------------33-33-33-33333-3-33-33-|

 ----------------------------------------------------|
 ----------------------------------------------------|
 ----------------------------------------------------|
 ----------------------------------------------------|
 -3333-33-3333-33--------------------------------6h8-|
 -3333-33-3333-33-8h10p8p6h8p6-3-6-8h10p8p6h8h10-----|

 -------------------------|--------------|---------------|
 -------------------------|--------------|---------------|
 -------------------------|--------------|---------------|
 -------------------------|--------------|---------------|
 -33-33-33-33333-3-33-33--|-----------8s-|------------8s-|
 -33-33-33-33333-3-33-33--|-6s---2s------|-6s---10s------|

	|-13131313--13131313--13--1313--131313-|
	|-x-x-x-x---x-x-x-x---x---x-x---x-x-x--|
	|-10101010--10101010--10--1010--101010-|
	|--------------------------------------|
	|--------------------------------------|
	|--------------------------------------|

|----------------------------------------------------------|
|----------------------------------------------------------|
|----------------------------------------------12-12-12-12-|
|----------------------------------------------10-10-10-10-|
|----------------------------------------------8--8--8--8--|
|-333-2^-333-2^-3--22--2^-333-2^-333-2^-3--22--------------|

|-13-------13h16--13-------13h15-|
|-------13--------------13-------|
|----13--------------13----------|
|--------------------------------|
|--------------------------------|
|--------------------------------|

 ----------------------------------|
 -14-14-11-11--13------------------|
 ------------------15-13-12-12--10-|
 ----------------------------------|
 ----------------------------------|
 ----------------------------------|

|----------------------------------------------|
|----------------------------------------------|
|----------------------------------------------|
|------------------(6)-------------------------|
|-3333-33-3333-33--(3)--33-33-33-33333-3-33-33-|
|-3333-33-3333-33-------33-33-33-33333-3-33-33-|

|--------------|-13131313--13131313--13--1313--131313-|
|--------------|-x-x-x-x---x-x-x-x---x---x-x---x-x-x--|
|--------------|-10101010--10101010--10--1010--101010-|
|--------------|--------------------------------------|
|-----------8s-|--------------------------------------|
|-6s---2s------|--------------------------------------|

|------------------------------------------|
|-----------------6---6/9---9/13----13\9---|
|------------------------------------------|
|-------------------3-----6------10------6-|
|-3333-33-3333-33--------------------------|
|-3333-33-3333-33--------------------------|

------------------------------------|
------------------------------------|
------------------------------------|
------------------------------------|
-33-33-33-33333-3-33----------------|
-33-33-33-33333-3-33-8h10p8p6h8p6-3-|

 ----------------------------------------------------|
 ----------------------------------------------------|
 ----------------------------------------------------|
 ----------------------------------------------------|
 -3333-33-3333-33--------------------------------6h8-|
 -3333-33-3333-33-8h10p8p6h8p6-3-6-8h10p8p6h8h10-----|

 -------------------------|--------------|---------------|
 -------------------------|--------------|---------------|
 -------------------------|--------------|---------------|
 -------------------------|--------------|---------------|
 -33-33-33-33333-3-33-33--|-----------8s-|------------8s-|
 -33-33-33-33333-3-33-33--|-6s---2s------|-6s---10s------|

	|-13131313--13131313--13--1313--131313-|---|
	|-x-x-x-x---x-x-x-x---x---x-x---x-x-x--|---|
	|-10101010--10101010--10--1010--101010-|---|
	|--------------------------------------|---|
	|--------------------------------------|-3-|
	|--------------------------------------|-3-|

|-------------------------------------------------------------|
|-------------------------------------------------------------|
|-------------------------------------------------------------|
|-----------6p3--------6-------6p3--------6----------6p3------|
|-2-3--2-3------4----4---2-3-------4----4---2-3--2-3-----4----|
|-3-4--3-4--------2^-----3-4---------2^-----3-4--3-4-------2^-|

|-------------------------------|
|-------------------------------|
|-------------------------------|
|-/6-7--/9-10--9h10p9---6-9-----|
|---------------------7-----8-8-|
|---------------------------9-9-|

 ----------------11---------------------|
 -9-10-12-13--13------------------------|
 ---------------------------------------|
 ---------------------------------------|
 -------------------------------2-2-2-2-|
 --------------------10-9--6-3--3-3-3-3-|

 --------------------------------------|
 --------------------------------------|
 --------------------------------------|
 -/6-7--/9-10--------------------------|
 --------------------------------------|
 --------------10-10-6-9^--3-6^--2-*3^-|

 --------------------------------------------|
 --------------------------------------------|
 --------------------------------------------|
 ----------10-----9-----6--2-2-2-2-3---6---2-|
 -8888---------------------2-2-2-2-3---6---2-|
 -------9^-----8^----5^----2-2-2-2-3---6---2-|

|-13-------13h16--13-------13h15-|
|-------13--------------13-------|
|----13--------------13----------|
|--------------------------------|
|--------------------------------|
|--------------------------------|

 ----------------------------------|
 -14-14-11-11--13------------------|
 ------------------15-13-12-12--10-|
 ----------------------------------|
 ----------------------------------|
 ----------------------------------|

|-----------------------|
|-----------------------|
|-----------------------|
|-----------------------|
|-6-9--8^v--5--6-9--8^v-|
|-----------------------|

|---------------------------------------|
|---------------------------------------|
|---------------------------------------|
|---------------------------------------|
|-1-1--1-1-11---1-11111-1-11--1--1-1--1-|
|-1-1--1-1-11---1-11111-1-11--1--1-1--1-|

 -------------------------------------------|
 -------------------------------------------|
 -------------------------------------------|
 -------------------------------------------|
 -1-1--1-1-11---1-11111-1-11--1--1-1--------|
 -1-1--1-1-11---1-11111-1-11--1--1-1--0(d)v-|

|------------------------------------------------------|
|------------------------------------------------------|
|-8-11--10^v--7--8-11--10^v--8-11--10^v--7--8-11--10-7-|
|------------------------------------------------------|
|------------------------------------------------------|
|------------------------------------------------------|
	[GTR 2]
|--------------------------------------------------|
|-7-11--9^v--6--7-11--9^v--7-11--9^v--6--7-11--9-6-|
|--------------------------------------------------|
|--------------------------------------------------|
|--------------------------------------------------|
|--------------------------------------------------|

|-----------------------------------|
|-----------------------------------|
|-----------------------------------|
|-----------------------------------|
|-1--1--1-1-1--11111-1-11--1-1-1--1-|
|-1--1--1-1-1--11111-1-11--1-1-1--1-|

 ----------------------------------|
 ----------------------------------|
 ----------------------------------|
 ----------------------------------|
 -1--1--1-1-1-1--1-1-11--1--1-1--1-|
 -1--1--1-1-1-1--1-1-11--1--1-1--1-|

 -------------------------------------------------|
 -------------------------------------------------|
 -------------------------------------------------|
 -------------------------------------------------|
 -1-1-11--1--1-1---------1-1-11--1--1-1--1-1-1--1-|
 -1-1-11--1--1-1--0(d)v--1-1-11--1--1-1--1-1-1--1-|
comments
print report bad tab
I want to post or [tab]
guest
You may want to rate the tab now too:
select rating
Please do not post tabs as comments. Select "correction" instead!