Oops, an error
Loading. Please wait.

Tractor Pull Tab

ver1
ver1

Whole song

Interactive

More versions @911Tabs.com
25,161 views 27 this week
9 commentsread comments
1 2 3 4 5
excellent!
x 12
Autoscroll
+/-
esc
set tempo
stop
Contributor
Difficulty
advanced
Hey! There's an official Ultimate Guitar app which is ideal
for learning songs when you're away from computer. Get the app
WARNING: You are trying to view
                                    content from Ultimate-Guitar.com
                                    in an unauthorized application,
                                    which is prohibited.

                                    Please use an official Ultimate
                                    Guitar Tabs application for iPhone,
                                    iPad or Android to access legitimate
                                    chords, guitar, bass, and drum tabs
                                    from Ultimate-Guitar.com database.

                                    Type "ultimate guitar tabs" in Apple
                                    App Store's or Android Market's
                                    search to find the application.
"Tractor Pull"

BY: WITHIN THE RUINS

Transcribed by Joe Keller
jkguitar@comcast.net

My Video on how to play:
http://www.youtube.com/watch?v=bSa0PJRhOjE

PLEASE DO NOT Copy without Permission!

THANKS AND ENJOY!

Tuning
G# D# G# C# F A#


you know the deal..

h= hammer on
p= pull off
/ \= slides
*= harmonic

ect....

 [    INTRO:    ]

|--------------------------------------------------|
|--------------------------------------------------|
|--------------------------------------------------|
|-----11--------------11---------------------------|
|--------12-9----9-12----12-9--------11/12---------|
|-0-0---------11--------------11-6/7-------0-0000--|

 ------------------------------------------------------------------------------------|
 ------------------------------------------------------------------------------------|
 ------------------------------------------------------------------------------------|
 -11--------------11-----------------------------------------------------------------|
 ----12-9----9-12----12-8-11----44----4/5-5\2-2/4----7/9---------6p3---3-6/7---------|
 ---------11-----------------44----44-------------44-----4-44444-----4-------333-333-|


|--------------------------------------------------------------------------|
|--------------------------------------------------------------------------|
|--------------------------------------------------------------------------|
|--------------------------7---------7------------------------------11-----|
|-9----9----9----9----8-11---11-8-11---11-9----9----9----9----11-14----14--|
|---12---12---12---12-----------------------12---12---12---12--------------|

|----------------------------------------------------------------|
|----------------------------------------------------------------|
|----------------------------------------------------------------|
|----------------------------------------------------------------|
|-9999999999-4444444444-12-12-12-12-12-12-12-12-12-12-444444444--|
|----------------------------------------------------------------|

|-------------------------------------------------------------------------------------|
|-------------------------------------------------------------------------------------|
|-------------------------------------------------------------------------------------|
|--------------------------7---------7------------------------------11----------11----|
|-9----9----9----9----8-11---11-8-11---11-9----9----9----9----11-14----14-11-14----14-|
|---12---12---12---12-----------------------12---12---12---12-------------------------|

|----------------------------------------------------------------------------|
|----------------------------------------------------------------------------|
|----------------------------------------------------------------------------|
|-------------------777777-666666---------------11-11-11-11-11-666666-777777-|
|-9999999999-444444---------------8888-99999999------------------------------|
|----------------------------------------------------------------------------|

|-------------------------------------------------------------------------------------|
|-------------------------------------------------------------------------------------|
|-------------------------------------------------------------------------------------|
|--------------------------7---------7------------------------------11----------11----|
|-9----9----9----9----8-11---11-8-11---11-9----9----9----9----11-14----14-11-14----14-|
|---12---12---12---12-----------------------12---12---12---12-------------------------|

|-----------------------------------------------------------------------|
|-----------------------------------------------------------------------|
|-----------------------------------------------------------------------|
|-----------------------------------------------------------------------|
|-9999999999-4444444444-12-12-12-12-12-12-12-12-12-12-11-11-11-11-11-11-|
|-----------------------------------------------------------------------|

GTR 1
|---------------------------------------------------------------------|
|---------------------------------------------10----------10----------|
|---------------------------------------11h13----13p11h13----13p11h13-|
|-------------------------7---------4---------------------------------|
|-9----9----9----9---8-11---11-8-11-4---------------------------------|
|---12---12---12--------------------4---------------------------------|

	GTR2
	-------9----------9-------------|
	-10h12---12p10h12---12p10h12----|
	--------------------------------|
	--------------------------------|
	--------------------------------|
	--------------------------------|


|-------------------------------------------------------------------|
|---------------------10----------10--------------------------------|
|---------------11h13----13p11h13----13p11h13-----------------------|
|-------------------------------------------------------------------|
|-4-44-4-444-4---------------------------------4-44-4-444-4---44-4--|
|-4-44-4-444-4---------------------------------4-44-4-444-4---44-4--|

|---------------------------------------------------------------------|
|---------------------------------------------------------------------|
|---------------------------------------------------------------------|
|---------------------------------------------------------------------|
|-4-44-4-444-4---4-4---44-44-4-4444---4-4-4-44-4-4-4-44--4-44-4--444--|
|-4-44-4-444-4---4-4---44-44-4-4444---5-5-5-55-5-5-5-55--4-44-4--444--|

|-----------------------------------------------------------------------|
|-----------------------------------------------------------------------|
|-----------------------------------------------------------------------|
|---------------------------------7h11p7---7-11---9h11p9-7-6-4----------|
|-4-4-4-44-4-4-4-44--4-44-4--444---------9------8-----------------------|
|-5-5-5-55-5-5-5-55--4-44-4--444-------------------------------44444444-|

|----------------------------------------------------------------------|
|----------------------------------------------------------------------|
|----------------------------------------------------------------------|
|-7h11p7---7-11---9h11p9-7-6-4------/9-7-3-----------------------------|
|--------9------8--------------------------4-------------4-5\4---------|
|------------------------------0-00----------3-4-4-444-2-------2-0-000-|

|-------------------------------------------------------------------------------|
|-------------------------------------------------------------------------------|
|-10-13-10-13-11-14-11-14-------------------------------------------------------|
|-------------------------7h11p7---7-11---9h11p9-7-6-4-------/9-7-3-------------|
|--------------------------------9------8---------------------------4-----------|
|------------------------------------------------------0-000----------3-4-4-444-|

 -------------------------------------------------------------|
 ---------------------------------------------------14--------|
 ------------10h13p10h13-11h14p11h14-10h13p10----------11\----|
 ---------------------------------------------12p11-----------|
 ---4-5\4-----------------------------------------------------|
 -2-------2---------------------------------------------------|

 -------------------------------------------------------------------------|
 -------------------------------------------------------------------------|
 -------------------------------------------------------------------------|
 ----------7h11p7---7-11---9h11p9-7-6-4-----/9-7-3------------------------|
 -----------------9------8-------------------------4-------------4-5\4----|
 -44444444------------------------------4-4----------3-4-44-44-2-------2--|

 -------------------------------------------------------|
 ----------------------------------------14----------6--|
 -10h13p10h13-11h14p11h14-10h13p10----------13-------6--|
 ----------------------------------12p11----11---4-4-3--|
 -------------------------------------------9----4-4----|
 ------------------------------------------------4-4----|

	GTR 1			GTR 2
|----------------------|---------------13\----|
|------------------14\-|--9h12p9--------------|
|--/10h13p10-----------|---------11-10--------|
|------------12-11-----|----------------------|
|----------------------|----------------------|
|----------------------|----------------------|

 --------------------------------------------------------|
 ----------------------------------------------------14\-|
 -------------------------------------10h13p10-----------|
 ----------------------------------------------12p11-----|
 -4-4-444--444--44-44-4-444-444--4444--------------------|
 -4-4-444--444--44-44-4-444-444--4444--------------------|

 -------------------------------------------------------------------------------------------|
 ---------------------------------------------------------------------------------------14\-|
 ------------------------------------------------------------------------10h13p10-----------|
 ---------------------------------------------------------------------------------12p11-----|
 -444-444-44-44-4-444-444-4-4444-4444444--444-444-44-44-4-444-444-4-4444--------------------|
 -444-444-44-44-4-444-444-4-4444-4444444--444-444-44-44-4-444-444-4-4444--------------------|

   [guitar fill]
 |-------------------------------------|
 |---7-----------------7---------------|
 |-----7----6------------7---66---44---|
 |-4-----44---7-3-6--4-----4----7----6-|
 |-------------------------------------|
 |-------------------------------------|

  ----------------------------------------|
  ----------------------------------------|
  ----------------------------------------|
  ----------------------------------------|
  -444-444-44-44-4-444-444-4444-44444444--|
  -444-444-44-44-4-444-444-4444-44444444--|

  [Play this scale 2x]
|----------------------------------------------------------|
|----------------------------------------------------------|
|----------------------------------------------------------|
|-7h11p7---7-11---9h11p9-------11h12p11p9-11-12-3-6h7------|
|--------9------8--------12-11------------------------9-8--|
|----------------------------------------------------------|

  Play these 2 a few times..
|--------------------------------------------------------------------------------|
|--------------------------------------------------------------------------------|
|--------------------------------------------------------------------------------|
|---11--------------11----------------------11--------------11-------------------|
|------12-9----9-12----12-9--------11/12-------12-9----9-12----12-9--------11/12-|
|-4---------11--------------11-6/7--------0---------11--------------11-6/7-------|

 ---------------------------------------------------------------------------------|
 ---------------------------------------------------------------------------------|
 ---------------------------------------------------------------------------------|
 ---11--------------11-----------------------11--------------11-------------------|
 ------12-9----9-12----12-9--------11/12--------12-9----9-12----12-9--------11/12-|
 -9---------11--------------11-6/7--------11---------11--------------11-6/7-------|

|--------------------------------------------------------------------------------------|
|--------------------------------------------------------------------------------------|
|--------------------------------------------------------------------------------------|
|-------------------------------------6-3---3-6/7--------------------------------------|
|-----44----4/5-5\2-2/4----7-9--------------------------------44----4/5-5/2-2/4----7-9-|
|-444----44-------------44-----4-4444-----4-------333-333-444----44-------------44-----|

  --------------------------------------------------------------------|
  --------------------------------------------------------------------|
  --------------------------------------------------------------------|
  --------6-3---3-6/7----------------------------------7---------7----|
  ----------------------------9----9----9----9----8h11---11p8h11---11-|
  -4-4444-----4-------333-333---12---12---12---12---------------------|

  ---------------------------------------|
  ---------------------------------------|
  ---------------------------------------|
  ---------------------------11----------|
  -9----9----9----9----11h14----14p11----|
  ---12---12---12---12-------------------|


|-----------------------------------------------------------------------|
|-----------------------------------------------------------------------|
|-----------------------------------------------------------------------|
|---------------------4-------4-------------------------7---------7-----|
|-9---9---9---9---4h8---8p4h8---8--9---9---9---9---8h11---11p8h11---11--|
|---4---4---4---4--------------------4---4---4---4----------------------|

|-------------------------------------|
|-------------------------------------|
|-------------------------------------|
|-------------------------------------|
|-555555555555-22222222-888888888888--|
|-------------------------------------|

 |----------------------------------------------------------|
 |----------------------------------------------------------|
 |----------------------------------------------------------|
 |----------------------6h7-------------6h7-------------6h7-|
 |-4333-7-6-4h9-----4h9-----4h9-----4h9-----4h9-----4h9-----|
 |-4333-7-6-----4h7-------------4h7-------------4h7---------|

   -----------------------------------|
   -----------------------------------|
   -------6-7-6-----------------------|
   -9-4-9-------9-4-3h6-----3h6-------|
   ---------------------4h8-----4h8---|
   -----------------------------------|

   play this a few times into the solo
|-----------------------------------------------------------|
|-----------------------------------------------------------|
|--------------------------------6-7-6----------------------|
|----------------------6h7-9-4-9-------9-4-3h6-----3h6------|
|-4333-7-6-4h9-----4h9-------------------------4h8-----4h8--|
|-4333-7-6-----4h7------------------------------------------|


   GTR 1        Solo
|--------------------------------------------------------------------------------------------------|
|--------------------------------------------------------------------------------------------------|
|--------------------------------------------------------------------------------------------------|
|-16-14h16p14\12--12h14p12\11---11h12p11----------------------------------------15--11h12p11-------|
|----------------------------------------14-12-11----14-14-16-17-16-14-17-16-14--------------12-11-|
|--------------------------------------------------------------------------------------------------|

   GTR 2        Solo
|----------------------------------------------------------------------------------|
|----------------------------------------------------------------------------------|
|----------------------------------------------------------------------------------|
|---------------------------10-10-10-10-10-10-10-10-66666666-----------------------|
|-4333-7-6--999999999999999-8--8--8--8--8--8--8--8--44444444--4333-7-6-3-777-666-3-|
|-4333-7-6--999999999999999-----------------------------------4333-7-6-3-777-666-3-|


|-------------------------------------------|
|-------------------------------------------|
|-------------------------------------------|
|-------------------------------------------|
|-4333-7-6-3-777-666-3-4333-7-6-3-777-666-3-|
|-4333-7-6-3-777-666-3-4333-7-6-3-777-666-3-|

		GTR 1						GTR 2
|-------------------------------------------|----------------------------------------------------|
|-------------------------------------------|----------------------------------------------------|
|----------10-10-10-10-10-10-10-10-66666666-|----------13-13-13-13-13-13-13-10-10-10-10-10-10-10-|
|-------------------------------------------|----------------------------------------------------|
|-99999999-8--8--8--8--8--8--8--8--44444444-|-99999999-11-11-11-11-11-11-11-8--8--8--8--8--8--8--|
|-99999999----------------------------------|-99999999-------------------------------------------|

|------------------------------------------------------------------|
|------------------------------------------------------------------|
|-/6h7p6-------------------------------------------6h7p6-----------|
|--------7-3h6p3-----------------------------6h7---------7-3h6-----|
|----------------4-4h9-----4h9---4h9-----4h9-------------------4h8-|
|----------------------4h7-----------4h7---------------------------|

  -----------------------------------------------------------------|
  -----------------------------------------------------------------|
  -----------------------------------------------------------------|
  ---------------------------44---6----------------------------6h7-|
  -4h9-----4h9---4h9-----4h9-44---4---4h9-----4h9--4h9-----4h9-----|
  -----4h7-----------4h7-----44-----------4h7----------4h7---------|

  ------------------------------------------------|
  ------------------------------------------------|
  -6h7p6------------------------------------------|
  -------7-3h6-------------------------------44---|
  -------------4h8-4h9-----4h9---4h9-----4h9-44---|
  ---------------------4h7-----------4h7-----44---|

|------------------------------------------|
|------------------------------------------|
|------------------------------------------|
|-444444-4444444--44--444444-4--444--4444--|
|-444444-4444444--44--444444-4--444--4444--|
|-444444-4444444--44--444444-4--444--4444--|

 [   OUTRO   ]
|-----------------------------------------------------------------|
|-----------------------------------------------------------------|
|-------------------------------------------------6h7p6-----------|
|---------------------------------4h9-4h9-4h9-6h7-------9-3h6-----|
|-4h9-----4h9---------4h9-----4h9-----------------------------4h8-|
|-----4h7-----4h7-4h7-----4h7-------------------------------------|

 -----------------------------------------------------------------|
 -----------------------------------------------------------------|
 -----------------------------------------------------------------|
 -------------------------------------------------3h6-3h6-3h6-3h6-|
 -4h9-----4h9---------4h9-----4h9---------------------------------|
 -----4h7-----4h7-4h7-----4h7-----4h7-4h7-4h7-4h7-----------------|

 -----------------------------------------------------------------|
 -----------------------------------------------------------------|
 -------------------------------------------------6h7p6-----------|
 ---------------------------------4h9-4h9-4h9-6h7-------9-3h6-----|
 -4h9-----4h9---------4h9-----4h9-----------------------------4h8-|
 -----4h7-----4h7-4h7-----4h7-------------------------------------|

 ----------------------------------------------------------------|
 ----------------------------------------------------------------|
 ----------------------------------------------------------------|
 -------------------------------------------------3h6-3h6-3*^----|
 -4h9-----4h9---------4h9-----4h9--------------------------------|
 -----4h7-----4h7-4h7-----4h7-----4h7-4h7-4h7-4h7----------------|


[------------- THE --- END ------------]
comments
print report bad tab
9 comments total. Showing first comments.
0 reply
SplitSoul wrote on June 19 2009, 01:11 pm

They should make it so you can Edit your Tabs. >_

0 reply
SplitSoul wrote on June 20 2009, 09:04 am

For this part replace the '5' with '4'
|-----------------------------------------------------------------------|
|-----------------------------------------------------------------------|
|-----------------------------------------------------------------------|
|---------------------4-------4-------------------------7---------7-----|
|-9---9---9---9---4h8---8p4h8---8--9---9---9---9---8h11---11p8h11---11--|
|---4---4---4---4--------------------4---4---4---4----------------------|

0 reply
SplitSoul wrote on June 28 2009, 03:56 am

Tab Edit/Update and Corrected. :)

I want to post or [tab]
guest
You may want to rate the tab now too:
select rating
Please do not post tabs as comments. Select "correction" instead!