Oops, an error
Loading. Please wait.

Young Wild Free Tab

9,205 views 33 this week
no commentswrite comment
1 2 3 4 5
excellent!
x 1
Autoscroll
+/-
esc
set tempo
stop
Contributor
WARNING: You are trying to view
                                    content from Ultimate-Guitar.com
                                    in an unauthorized application,
                                    which is prohibited.

                                    Please use an official Ultimate
                                    Guitar Tabs application for iPhone,
                                    iPad or Android to access legitimate
                                    chords, guitar, bass, and drum tabs
                                    from Ultimate-Guitar.com database.

                                    Type "ultimate guitar tabs" in Apple
                                    App Store's or Android Market's
                                    search to find the application.
---------------------------------------------------------------------------
            YOUNG, WILD & FREE – Wiz Khalifa ft. Snoop Dogg
---------------------------------------------------------------------------
Tabbed by: Lars Wassenaar
Email: Lars-berntsen@hotmail.com

Tuning: Standard

e|-------------------3-------------------2-------------------3------------|
B|-------------------3-------------------3-------------------3------------|
G|-------------------4-------------------2-------------------4------------|
D|---4---2---0-------5---4---2---0-------0---4---2---0-------5------------|
A|---------------2---5---------------2-------------------2---5------------|
E|-------------------3---------------------------------------3------------|

e|-------------------2----------------------------------------------------|
B|-------------------3----------------------------------------------------|
G|-------------------4----------------------------------------------------|
D|---4---2---0-------4----------------------------------------------------|
A|---------------2---2----------------------------------------------------|
E|------------------------------------------------------------------------|

Vocal:
e|------------------------------------------------------------------------|
B|------------------------------------------------------------------------|
G|------------------------------------------------------------------------|
D|---4---2---0-------0-----4---2---0-------0-----4---2---0-------0--------|
A|---------------2---------------------2---------------------2------------|
E|------------------------------------------------------------------------|

e|------------------------------------------------------------------------|
B|------------------------------------------------------------------------|
G|----------------------------------------------------2-------------------|
D|---2---0---2-------------4---2---0------0---4---4-------0---4-----------|
A|---------------2---2-----------------2----------------------------------|
E|------------------------------------------------------------------------|

e|------------------------------------------------------------------------|
B|------------------------------------------------------------------------|
G|------------------------------------------------------------------------|
D|-------0---4-----4---2----4---0-----------------------------------------|
A|---2--------------------------------------------------------------------|
E|------------------------------------------------------------------------|

[Bruno Mars - Chorus]
                  G
So what we get drunk
                  D
So what we smoke weed
                   G
We're just having fun
                   Bm
We don't care who sees
               G
So what we go out
                           D
That's how its supposed to be
         G                 Bm
Living young and wild and free


                          G – D – G - Bm
[Wiz Khalifa - Verse 1]
Uh, Uh huh
So what I keep 'em rolled up
Saggin' my pants not caring what I show
Keep it real with my niggas
Keep it player for these hoes
It look clean don't it
Washed it the other day, watch how you lean on it
Give me some 501 jeans on and roll joints bigger than King Kong's fingers
And smoke them hoes down 'till they stingers
You a class clown and if I skip for the day I'm with you bitch smokin' grade A

                           G – D – G - Bm
[Snoop Dogg - Verse 2]
Yeah, uh you know what?
It's like I'm 17 again
Peach fuzz on my face
Lookin', on the case
Tryna find a hella taste
Oh My God, I'm on the chase
Chevy, its gettin' kinda heavy, irrelevant, sellin' it
Dippin' away, time keep slippin' away
Zip in the safe, flippin' for pay
Tippin' like I'm drippin' in paint
Up front four blunts, like Khalifa put the weed in a J"

                           G – D – G - Bm
[Bruno Mars - Chorus]
So what we get drunk
So what we smoke weed
We're just having fun
We don't care who sees
So what we go out
That's how its supposed to be
Living young and wild and free

                             G – D – G - Bm
[Wiz Khalifa]
Uh, and now I don't even care
Long as me and my team in here
There's gon' be some weed in the air
Tell 'em Mac-

[Snoop Dogg]
Blowin' everywhere we goin'
And now ya knowin'
When I step right up
Get my lighter so I can light up

[Wiz Khalifa]
That's how it should be done
Soon as you thinkin' you're down
Find how to turn things around
Now things are looking up





                    G – D – G - Bm
[Snoop Dogg]
From the ground up
Pound up
It's Taylor Gang
So turn my sound up
And mount up
And do my thang

[Wiz Khalifa]
Now I'm chillin
Fresh outta class feelin'
Like I'm on my own
And I could probably own a building
Got my own car
No job - no children
Had this science project
Me and Mac killed it

                 G – D – G - Bm
[Snoop Dogg]
T-H-C
M-A-C
D-E-V
H-D-3
High as me
This is us
We gon' fuss
And we gon' fight
And we gon' roll
And live off life

                   G – D – G - Bm
[Bruno Mars]
So what we get drunk
So what we smoke weed
We're just having fun
We don't care who sees
So what we go out
That's how its supposed to be
Living young and wild and free

[Wiz Khalifa]
Yea, roll one, smoke one
When you live like this you're supposed to party
Roll one, smoke one, and we all just having fun
So we just, roll one, smoke one
When you live like this you're supposed to party
Roll one, smoke one, and we all just having fun

[ All - Chorus]So what we get drunk
So what we smoke weed
We're just having fun
We don't care who sees
So what we go out
That's how its supposed to be
Living young and wild and free


Copied from MetroLyrics.com 

************************************

| /   slide up
| \   slide down
| h   hammer-on
| p   pull-off
| ~   vibrato
| +   harmonic
| x   Mute note
| b   Bend
| pb  Pre-bend
| br  Bend release
| pbr Pre-bend release
| brb Bend release bend

************************************
comments
We did not receive enough feedback on this tab! Please rate:
print report bad tab
1 2 3 4 5
I want to post or [tab]
guest
You may want to rate the tab now too:
select rating
Please do not post tabs as comments. Select "correction" instead!