Oops, an error
Loading. Please wait.

A Story To Tell Tab

ver1
ver1

Whole song

Interactive

More versions @911Tabs.com
7,048 views 6 this week
no commentswrite comment
1 2 3 4 5
excellent!
x 5
Autoscroll
+/-
esc
set tempo
stop
Contributor
Difficulty
Tuning
intermediate
A# F A# D# G C
Hey! There's an official Ultimate Guitar app which is ideal
for learning songs when you're away from computer. Get the app
WARNING: You are trying to view
                                    content from Ultimate-Guitar.com
                                    in an unauthorized application,
                                    which is prohibited.

                                    Please use an official Ultimate
                                    Guitar Tabs application for iPhone,
                                    iPad or Android to access legitimate
                                    chords, guitar, bass, and drum tabs
                                    from Ultimate-Guitar.com database.

                                    Type "ultimate guitar tabs" in Apple
                                    App Store's or Android Market's
                                    search to find the application.
--------------------------------------------------------------------------------------------------
                                   Woe, Is Me - "A Story To Tell"       
--------------------------------------------------------------------------------------------------

Band: Woe, Is Me
Song: A Story To Tell
Album: Genesi[s]
Track: 3

Tabbed by: Matthew Langston
Email: mattack_mattack@aol.com

Tuning: Drop A# (A# F A# D# G C)
                (Bb F Bb Eb G C)



[0:00 - 0:14]

Fades in...

C |-----------------------------------|-----------------------------------|
G |-----------------------------------|-----------------------------------|
D#|-----------------------------------|-----------------------------------|
A#|-----------------------------------|-----------------------------------|
F |--2-2-2----------------------------|--2-2-2----------------------------|
A#|--------4-4-4-5-5-5-0-0-0-0-0-2-2--|--------4-4-4-5-5-5-7-7-7-7-7-7-7--|

                                                                  | Guitar 1  | Guitar 2
C |-----------------------------------|---------------------------|-----------|------------|
G |-----------------------------------|---------------------------|-----------|--10-8-7----|
D#|-----------------------------------|---------------------------|-----------|---------7--|
A#|-----------------------------------|---------------------------|--7-5-3-0--|------------|
F |--2-2-2----------------------------|--2-2-2-0-0-0-5-5-5-4-4-4--|-----------|------------|
A#|--------4-4-4-5-5-5-0-0-0-0-0-2-2--|---------------------------|-----------|------------|



[0:15 - 0:29]

  | Guitar 1
C |-------------------------------------------------------------------|
G |-------------------------------------------------------------------|
D#|-------------------------------------------------------------------|
A#|--0-----------------------4--4--5-9--------------5--------4--4--5--|
F |--0-00-00-00-00-00-00-00-04-44-45-9-99-99-99-99-95-55-55-54-44-45--|
A#|--0-00-00-00-00-00-00-00-04-44-45-9-99-99-99-99-95-55-55-54-44-45--|
  |    .. .. .. .. .. .. .. .  .  .    .. .. .. .. .  .. .. .  .  .
  |
  | Guitar 2
C |----------------------------------------------|-----------------------------------|
G |--10-10-10-10-10-10-10-10-10-10-10-5-5-7-7-7--|--7-7-7-7-7-7-7-7-7-5-5-5-5-5-5-5--|
D#|--7--7--7--7--7--7--7--7--7--7--7--7-7-7-7-7--|--7-7-7-7-7-7-7-7-7-7-7-7-7-7-7-7--|
A#|----------------------------------------------|-----------------------------------|
F |----------------------------------------------|-----------------------------------|
A#|----------------------------------------------|-----------------------------------|


  | Guitar 1
C |-------------------------------------------------------------------|-------|
G |-------------------------------------------------------------------|-------|
D#|-------------------------------------------------------------------|-------|
A#|--0-----------------------4--4--5-9--------------5--------5-4-1-1--|---0~--|
F |--0-00-00-00-00-00-00-00-04-44-45-9-99-99-99-99-95-55-55-55-4-1-1--|---0~--|
A#|--0-00-00-00-00-00-00-00-04-44-45-9-99-99-99-99-95-55-55-55-4-1-1--|---0~--|
  |    .. .. .. .. .. .. .. .  .  .    .. .. .. .. .  .. .. .    
  |
  | Guitar 2
C |----------------------------------------------|-----------------------------------|-------|
G |--10-10-10-10-10-10-10-10-10-10-10-5-5-7-7-7--|--7-7-7-7-7-7-7-7-7-5-5-5-5-5-5-5--|-------|
D#|--7--7--7--7--7--7--7--7--7--7--7--7-7-7-7-7--|--7-7-7-7-7-7-7-7-7-7-7-7-7-7-7-7--|-------|
A#|----------------------------------------------|-----------------------------------|---0~--|
F |----------------------------------------------|-----------------------------------|---0~--|
A#|----------------------------------------------|-----------------------------------|---0~--|



[0:29 - 0:43]

C |-----------------------------------------------|-------------------------------------------------|
G |-----------------------------------------------|-------------------------------------------------|
D#|-----------------------------------------------|-------------------------------------------------|
A#|-----------------------------------------------|-------------------------------------------------|
F |-------------------------------------12--------|-------------------------------------------------|
A#|--12-00-11-12-00-12-00-11-12-00-12-0----13-13--|--12-00-11-12-00-12-00-11-12-00-12-00-12-00-10b--|
        ..       ..    ..       ..    .                 ..       ..    ..       ..    ..    ..

C |-----------------------------------------------|-----------------------------|
G |-----------------------------------------------|-----------------------------|
D#|-----------------------------------------------|-----------------------------|
A#|-----------------------------------------------|-----------------------------|
F |-------------------------------------12--------|-----------------------------|
A#|--12-00-11-12-00-12-00-11-12-00-12-0----13-13--|--12-00-11-12-00-12-00-11-0--|
        ..       ..    ..       ..    .                 ..       ..    ..    .



[0:44 - 0:58]

C |---------------------------------------|-------------------------------------|
G |---------------------------------------|-------------------------------------|
D#|---------------------------------------|-------------------------------------|
A#|---------------------------------------|-------------------------------------|
F |----------------------------2----------|---------------------------0-0-0000--|
A#|--1-0-1-0~--00-1-0-1-0~--00---3-1*-00--|--1-0-1-0~--00-1-0-1-0~--000-0-0000--|
               ..           ..        ..               ..           ... . ....

C |---------------------------------------|------------------------------|
G |---------------------------------------|------------------------------|
D#|---------------------------------------|------------------------------|
A#|---------------------------------------|------------------------------|
F |----------------------------2----------|-------------------3-1-3-1-0--|
A#|--1-0-1-0~--00-1-0-1-0~--00---3-1*-00--|--1-0-1-0~--00-1-0-3-1-3-1-0--|
               ..           ..        ..               ..     . . . . .      



[0:59 - 1:13]

C |--------------------------------------------------------|
G |--------------------------------------------------------|
D#|--------------------------------------------------------|
A#|--------------------------------------------------------|
F |--0000-----000000-0-0~--0000----0000--------------------|
A#|--1111-----111111-1-1~--1111----1111-1*br-1-1-1*br-1-1--|
     ....     ...... . .   ....    ....

C |-------------------------------------------------------|
G |-------------------------------------------------------|
D#|-------------------------------------------------------|
A#|-------------------------------------------------------|
F |--0000-----000000-0-0~--0000----0000-0~-0~-0~-0-0-0-0--|
A#|--1111-----111111-1-1~--1111----1111-1~-1~-1~-1-1-1-1--|
     ....     ...... . .   ....    .... .  .  .  . . . .



[1:14 - 1:20]

C |-----------------------------------|---------------------------|
G |-----------------------------------|---------------------------|
D#|-----------------------------------|---------------------------|
A#|-----------------------------------|---------------------------|
F |--2-2-2----------------------------|--2-2-2-0-0-0-5-5-5-4-4-4--|
A#|--------4-4-4-5-5-5-0-0-0-0-0-2-2--|---------------------------|



[1:21 - 1:35]

  | Guitar 1
C |----------------------------------------|-----------------------------------|
G |----------------------------------------|-----------------------------------|
D#|----------------------------------------|-----------------------------------|
A#|----------5-----------------------------|--9-9-9-9-9-9-9-9-7-7-7-7-7-7-7-7--|
F |--5-5-5-5-5----5-5-5-5---5555--5-5-5-5--|--9-9-9-9-9-9-9-9-7-7-7-7-7-7-7-7--|
A#|--5-5-5-5-5----5-5-5-5---5555--5-5-5-5--|--9-9-9-9-9-9-9-9-7-7-7-7-7-7-7-7--|
  |  . . . .      . . . .   ....  . . . .
  |
  | Guitar 2
C |---------------------------------------------------|-----------------------------------|
G |---------------------------------------------------|-----------------------------------|
D#|--14-14-14-14-14-14-14-14-11-11-11-11-11-11-11-11--|--4-4-4-4-4-4-4-4-6-6-6-6-6-6-6-6--|
A#|--x--x--x--x--x--x--x--x--x--x--x--x--x--x--x--x---|--x-x-x-x-x-x-x-x-x-x-x-x-x-x-x-x--|
F |--12-12-12-12-12-12-12-12-9--9--9--9--9--9--9--9---|--2-2-2-2-2-2-2-2-4-4-4-4-4-4-4-4--|
A#|---------------------------------------------------|-----------------------------------|


  | Guitar 1
C |----------------------------------------|-----------------------------------|
G |----------------------------------------|-----------------------------------|
D#|----------------------------------------|-----------------------------------|
A#|----------5-----------------------------|--9-9-9-9-9-9-9-9-7-7-7-7-7-7-7-7--|
F |--5-5-5-5-5----5-5-5-5---5555--5-5-5-5--|--9-9-9-9-9-9-9-9-7-7-7-7-7-7-7-7--|
A#|--5-5-5-5-5----5-5-5-5---5555--5-5-5-5--|--9-9-9-9-9-9-9-9-7-7-7-7-7-7-7-7--|
  |  . . . .      . . . .   ....  . . . .
  |
  | Guitar 2
C |---------------------------------------------------|-------------------------------------------|
G |---------------------------------------------------|-------------------------------------------|
D#|--14-14-14-14-14-14-14-14-11-11-11-11-11-11-11-11--|--11-11-11-11-11-11-11-11-9-9-9-9-9-9-9-9--|
A#|--x--x--x--x--x--x--x--x--x--x--x--x--x--x--x--x---|--x--x--x--x--x--x--x--x--x-x-x-x-x-x-x-x--|
F |--12-12-12-12-12-12-12-12-9--9--9--9--9--9--9--9---|--9--9--9--9--9--9--9--9--7-7-7-7-7-7-7-7--|
A#|---------------------------------------------------|-------------------------------------------|



[1:36 - 1:50]

C |--------------------------------------------------------|
G |--------------------------------------------------------|
D#|--------------------------------------------------------|
A#|--------------------------------------------------------|
F |--------------------------------------------------------|
A#|--5-5-5-5--5-5--5-5-5-5-5-5-5-5--5-5--5-5-5-5--5-5-5-5--|
     . . .    .    . . . . . . .    .    . . .    . . .

C |--------------------------------------|
G |--------------------------------------|
D#|--------------------------------------|
A#|--9-9-9-12-12-12-7-7-7-7-7-7-7-5-5-5--|
F |--9-9-9-12-12-12-7-7-7-7-7-7-7-5-5-5--|
A#|--9-9-9-12-12-12-7-7-7-7-7-7-7-5-5-5--|

C |-----------------------------------------------------------|
G |-----------------------------------------------------------|
D#|-----------------------------------------------------------|
A#|-----------------------------------------------------------|
F |--0-0-0-0--0-0--0-0-0-0-0-0-0-0--0-0--0-0-0-0--0-0--0-0-0--|
A#|--0-0-0-0--0-0--0-0-0-0-0-0-0-0--0-0--0-0-0-0--0-0--0-0-0--|
     . . . .  . .  . . . . . . . .  . .  . . . .  . .  . . .

C |---------------------------------------|
G |---------------------------------------|
D#|---------------------------------------|
A#|--9-9-9-12-12-12-7-7-7-7-7-7-5-1~--0~--|
F |--9-9-9-12-12-12-7-7-7-7-7-7-5-1~--0~--|
A#|--9-9-9-12-12-12-7-7-7-7-7-7-5-1~--0~--|



[1:51 - 2:06]

C |---------------------------------------|------------------------------------------------|
G |---------------------------------------|------------------------------------------------|
D#|---------------------------------------|------------------------------------------------|
A#|---------------------------------------|------------------------------------------------|
F |--0000-0000-0000-0000---0-0-0000-0000--|--0000-0000-0000-0000--0-0--0-0--0-0-0000-0000--|
A#|--0000-0000-0000-0000---0-0-0000-0000--|--0000-0000-0000-0000--0-0--0-0--0-0-0000-0000--|
     .... .... .... ....   . . .... ....     .... .... .... ....  . .  . .  . . .... ....

C |---------------------------------------|------------------------------------------------|
G |---------------------------------------|------------------------------------------------|
D#|---------------------------------------|------------------------------------------------|
A#|---------------------------------------|------------------------------------------------|
F |--0000-0000-0000-0000---0-0-0000-0000--|--0000-0000-0000-0000--0-0--0-0--0-0-0000-0000--|
A#|--0000-0000-0000-0000---0-0-0000-0000--|--0000-0000-0000-0000--0-0--0-0--0-0-0000-0000--|
     .... .... .... ....   . . .... ....     .... .... .... ....  . .  . .  . . .... ....

C |------------|
G |------------|
D#|------------|
A#|------------|
F |------------|
A#|--0-0--0-1--|
     .    .



[2:06 - 2:21]

C |------------------------------------|----------------------------------|
G |------------------------------------|----------------------------------|
D#|------------------------------------|----------------------------------|
A#|------------------------------------|----------------------------------|
F |--00000-00-00----0000000-000--------|--00000-00-00----0000000-00-------|
A#|--00000-00-00-1b-0000000-0000~-1br--|--00000-00-00-3b-0000000-001-4-0--|
     ..... .. ..    ....... ...           ..... .. ..    ....... ..

C |------------------------------------|------------------------------------|
G |------------------------------------|------------------------------------|
D#|------------------------------------|------------------------------------|
A#|------------------------------------|---------------------------1-4-0-0--|
F |--00000-00-00----0000000-000--------|--00000-00-00----0000000-001-4-0-0--|
A#|--00000-00-00-1b-0000000-0000~-1br--|--00000-00-00-3b-0000000-001-4-0-0--|
     ..... .. ..    ....... ...           ..... .. ..    ....... ..



[2:22 - 2:29]

C |------------------------------|----------------------------------|
G |------------------------------|----------------------------------|
D#|------------------------------|----------------------------------|
A#|--1-4------------1-4----------|--1-4-----------------------------|
F |--1-4-000000--0001-4-000---0--|--1-4-000000--0000--0000--0-0000--|
A#|--1-4-000000--0001-4-0000~-0--|--1-4-000000--0000--0000--0-0000--|
         ......  ...    ...   .         ......  ....  ....  . ....



[2:29 - 2:44]

C |--------------------------------------|--------------------------------------|
G |--------------------------------------|--------------------------------------|
D#|--------------------------------------|--------------------------------------|
A#|--------------------------------------|--------------------------------------|
F |--------------------------------------|----------------------------2---------|
A#|--12b-00-1b-00-12b-00-1b-00-1-001-00--|--12b-00-1b-00-12b-00-1b-00---001-00--|
                                 ..  ..                                 ..  ..

C |--------------------------------------|--------------------------------------|-------|
G |--------------------------------------|--------------------------------------|-------|
D#|--------------------------------------|--------------------------------------|-------|
A#|--------------------------------------|--------------------------------------|---0~--|
F |--------------------------------------|----------------------------2---------|---0~--|
A#|--12b-00-1b-00-12b-00-1b-00-1-001-00--|--12b-00-1b-00-12b-00-1b-00---001-00--|---0~--|
                                 ..  ..                                 ..  ..



[2:44 - 3:40]

And if you suddenly find yourself speechless, I'll give you a story to tell...

  | Guitar 1
C |--------------------------------------------------------------------|
G |--------------------------------------------------------------------|
D#|--------------------------------------------------------------------|
A#|--9--99-9-9-9-9-995--55-5-5-5-5-550--00-0-0-0-0-007--77-7-7-7-7-77--|
F |--9--99-9-9-9-9-995--55-5-5-5-5-550--00-0-0-0-0-007--77-7-7-7-7-77--|
A#|--9--99-9-9-9-9-995--55-5-5-5-5-550--00-0-0-0-0-007--77-7-7-7-7-77--|
  |
  | Guitar 2
C |------------------------------------------------------------------------------------|
G |------------------------------------------------------------------------------------|
D#|--16-16-16-16-16-16-16-16-12-12-12-12-12-12-12-12-12\7-7-7-7-7-7-7-9-9-9-9-9-9-9-9--|
A#|--x--x--x--x--x--x--x--x--x--x--x--x--x--x--x--x--x--x-x-x-x-x-x-x-x-x-x-x-x-x-x-x--|
F |--14-14-14-14-14-14-14-14-10-10-10-10-10-10-10-10-10\5-5-5-5-5-5-5-7-7-7-7-7-7-7-7--|
A#|------------------------------------------------------------------------------------|


  | Guitar 1
C |----------------------------------------------------------------|
G |----------------------------------------------------------------|
D#|----------------------------------------------------------------|
A#|--9---9---9-9-9-5------5-5-5-5-5-5-5-0-0-0-0-0-0-0-0-7-7-7-7-7--|
F |--9---9---9-9-9-5------5-5-5-5-5-5-5-0-0-0-0-0-0-0-0-7-7-7-7-7--|
A#|--9---9---9-9-9-5------5-5-5-5-5-5-5-0-0-0-0-0-0-0-0-7-7-7-7-7--|
  |
  | Guitar 2
C |------------------------------------------------------------------------------|
G |------------------------------------------------------------------------------|
D#|--16-16-16-16-16-16-16-16-12-12-12-12-12-12-12-12-12\7-7-7-7-7-7-7-9-9-9-9-9--|
A#|--x--x--x--x--x--x--x--x--x--x--x--x--x--x--x--x--x--x-x-x-x-x-x-x-x-x-x-x-x--|
F |--14-14-14-14-14-14-14-14-10-10-10-10-10-10-10-10-10\5-5-5-5-5-5-5-7-7-7-7-7--|
A#|------------------------------------------------------------------------------|


  | Guitar 1
C |-----------------------------------------------------------|
G |-----------------------------------------------------------|
D#|------7-7--7--7-7-7-7--7-7-7-------------------------------|
A#|------5-5--5--5-5-5-5--5-5-5--12121212-12-12111111-----11--|
F |--55555-5--5--5-5-5-5--5-5-5--9-9-9-9--9--9-7-7-7--77777---|
A#|--55555-5--5--5-5-5-5--5-5-5--9-9-9-9--9--9-7-7-7--77777---|
  |  ....                                             ....
  |
  | Guitar 2
C |-------------------------------------------------------------------------|
G |------7---10---8-7------7---10---8-7------7---10---8-7--8-7-------7-7-7--|
D#|--7-7---7----7------7-7---7----7------7-7---7----7----------9-7-9--------|
A#|-------------------------------------------------------------------------|
F |-------------------------------------------------------------------------|
A#|-------------------------------------------------------------------------|
  |  . .   .    .      . .   .    .      . .   .    .


  | Guitar 1
C |-----------------------------------------------------------------|
G |-----------------------------------------------------------------|
D#|--7-7-7-7--7--7-7-7-7--7-7-7---------------------------------7~--|
A#|--5-5-5-5--5--5-5-5-5--5-5-5--12121212-12-12111111-11111111--5~--|
F |--5-5-5-5--5--5-5-5-5--5-5-5--9-9-9-9--9--9-7-7-7--7-7-7-7---5~--|
A#|--5-5-5-5--5--5-5-5-5--5-5-5--9-9-9-9--9--9-7-7-7--7-7-7-7---5~--|
  |
  | Guitar 2
C |----------------------------------------------------------------------------|
G |------7---10---8-7------7---10---8-7------7---10---8-7--8-7-------7-----7~--|
D#|--7-7---7----7------7-7---7----7------7-7---7----7----------9-7-9---9-7-----|
A#|----------------------------------------------------------------------------|
F |----------------------------------------------------------------------------|
A#|----------------------------------------------------------------------------|    
  |  . .   .    .      . .   .    .      . .   .    .



[END]



************************************

| .   palm mute
| ~   held note
| b   bend
| *   pinch harmonic
| br  bend, release
| x   mute string
| \   slide down

************************************
comments
print report bad tab
I want to post or [tab]
guest
You may want to rate the tab now too:
select rating
Please do not post tabs as comments. Select "correction" instead!