Oops, an error
Loading. Please wait.

Delinquents Tab

ver2
ver2

Solo

Whole song

More versions @911Tabs.com
4,241 views 24 this week
1 commentread comment
1 2 3 4 5
excellent!
x 9
Autoscroll
+/-
esc
set tempo
stop
Contributor
Difficulty
Tuning
intermediate
C G C F A D
WARNING: You are trying to view
                                    content from Ultimate-Guitar.com
                                    in an unauthorized application,
                                    which is prohibited.

                                    Please use an official Ultimate
                                    Guitar Tabs application for iPhone,
                                    iPad or Android to access legitimate
                                    chords, guitar, bass, and drum tabs
                                    from Ultimate-Guitar.com database.

                                    Type "ultimate guitar tabs" in Apple
                                    App Store's or Android Market's
                                    search to find the application.
--------------------------------------------------------------------------------------------------
                                   WOE, IS ME - "[&] Delinquents"       
--------------------------------------------------------------------------------------------------

Band: Woe, Is Me
Song: [&] Delinquents
Album: Number[s]
Track: 2

Tabbed by: AsILayDying504
Email: mattack_mattack@aol.com

Tuning: Drop C (CGCFAD)



[0:00 - 0:20]

D|---------------------------------------|
A|---------------------------------------|
F|---------------------------------------|
C|--0~-----------------------------------|
G|--0~------------------00-00-0000-00-0--|
C|--0~------------------00-00-0000-00-0--| 
                        .. .. .... .. .

D|------------------------------------------------------------------------------------|
A|------------------------------------------------------------------------------------|
F|------------------------------------------------------------------------------------|
C|----------------------------------------------------------------3*b-----------------|
G|--00-00-0000-00-0000-00-0----00-00-00---000-000--00-00-00-00-00-----000-000--00-00--|
C|--00-00-0000-00-0000-00-0----00-00-00---000-000--00-00-00-00-00-----000-000--00-00--|
    .. .. .... .. .... .. .    .. .. ..   ... ...  .. .. .. .. ..     ... ...  .. ..



[0:20 - 0:32]

D|-----------------------------------|
A|-----------------------------------|
F|-----------------------------5~----|
C|--0~----------------0~-------3~----|
G|--0~-------8~-------0~-------3~----|
C|--0~-------5~-------0~-------3~----|



[0:34 - 0:39]

   Guitar 1
D|-------------------------------|----------------------|
A|-------------------------------|----------------------|
F|-------------------------------|----------------------|
C|--0---7b-----------------------|--0---7b--------------|
G|--0---11b--------------0-0-00--|--0---11b-------------|
C|--0--------0-0-0-0-0---0-0-00--|--0--------0-0-0-0-0--|
                         . . ..

   Guitar 2
D|------------t10-p3-h5-t12/13-p8-h10-(10)-t15/17-p10-t13-p10--|
A|--t10-p3-h6--------------------------------------------------|
F|-------------------------------------------------------------|
C|-------------------------------------------------------------|
G|-------------------------------------------------------------|
C|-------------------------------------------------------------|
 |
D|------------t10-p3-h5-t12/13-p8-h10-(10)-t15/17-p10-t13-p10--|
A|--t10-p3-h6--------------------------------------------------|
F|-------------------------------------------------------------|
C|-------------------------------------------------------------|
G|-------------------------------------------------------------|
C|-------------------------------------------------------------|



[0:40 - 1:00]

*For Guitar 1, the notes on the F string are slightly heard. Play them at your discretion.

   Guitar 1
D|----------------------------------------------------------------------|
A|----------------------------------------------------------------------|
F|--5555555555555555-5555555555555555-55555555555555554444444444444444--|
C|--7777777777777777-3333333333333333-55555555555555555555555555555555--|
G|--7777777777777777-3333333333333333-55555555555555555555555555555555--|
C|--7777777777777777-3333333333333333-55555555555555555555555555555555--|
 |
D|-------------------------------------------|
A|-------------------------------------------|
F|--5555555555555555----------55555555-------|
C|--3333333333333333-77777777-55555555-0~----|
G|--3333333333333333-77777777-55555555-0~----|
C|--3333333333333333-77777777-55555555-0~----|


   Guitar 2
D|-----------------------------t10/12-p5--------t15/17-p5--|
A|--t12-p3-------------------------------t13-p3------------|
F|-----------------------t9-p5-----------------------------|
C|---------t10-p5-t12-p5-----------------------------------|
G|---------------------------------------------------------|
C|---------------------------------------------------------|
 |
D|-----------------------------t10/12-p5--------t15/17-p5--|
A|--t12-p3-------------------------------t13-p3------------|
F|-----------------------t9-p5-----------------------------|
C|---------t10-p5-t12-p5-----------------------------------|
G|---------------------------------------------------------|
C|---------------------------------------------------------|
 |
D|-----------------------------t10/12-p5--------t15/17-p5--|
A|--t12-p3-------------------------------t13-p3------------|
F|-----------------------t9-p5-----------------------------|
C|---------t10-p5-t12-p5-----------------------------------|
G|---------------------------------------------------------|
C|---------------------------------------------------------|
 |
D|-----------------------------t10/12-p5--------t15/17-p5--|
A|--t12-p3-------------------------------t13-p3------------|
F|-----------------------t9-p5-----------------------------|
C|---------t10-p5-t12-p5-----------------------------------|
G|---------------------------------------------------------|
C|---------------------------------------------------------|
 |
D|--t15/17-p5-t13-p5-t10/12-p5-----------------------------|
A|-------------------------------------------------t12-p3--|
F|-----------------------------t9-p5-----------------------|
C|-----------------------------------t12-p5-t10-p5---------|
G|---------------------------------------------------------|
C|---------------------------------------------------------|
 |
D|--t15/17-p5-t13-p5-t10/12-p5-----------------------------|---------|
A|-------------------------------------------------t12-p3--|---t10~--|
F|-----------------------------t9-p5-----------------------|---------|
C|-----------------------------------t12-p5-t10-p5---------|---------|
G|---------------------------------------------------------|---------|
C|---------------------------------------------------------|---------|



[1:06 - 1:26]

*Fades in

D|---------------------------------------------------------|
A|---------------------------------------------------------|
F|---------------------------------------------------------|
C|---------------------------------------------------------|
G|---------------------------------------------------------|
C|--1-0-0-0-0-1-0-1---000-0~-----1-0-0-0-0-1-0-1---000-0~--|

D|----------------------------------|----------------------------------|
A|----------------------------------|----------------------------------|
F|----------------------------------|----------------------------------|
C|----------------------------------|----------------------------------|
G|----------------------------------|---------------------3---------3--|
C|--1-000--0-1-0-1---000-0-0-000-0--|--1-000--0-1-0-1---0---4-1-0-1----|

D|----------------------------------|----------------------------|
A|----------------------------------|------------(Dive Bomb)-3*--|
F|----------------------------------|----------------------------|
C|----------------------------------|----------------------------|
G|----------------------------------|----------------------------|
C|--1-000--0-1-0-1---000-0-0-000-0--|--1-000--0-1-0-1---000------|
                                                        ..



[1:26 - 1:39]

D|-------------------------------|-----------------------------------------------------------|
A|-------------------------------|-----------------------------------------------------------|
F|-------------------------------|-----------------------------------------------------------|
C|-------------------------------|-----------------------------------------------------------|
G|--0~--0~----0-0-0-0~--0~--0~---|--00--00---0-0-0-0---0-0-0-0---00--00---0-0-0-0---0-0-0-0--|
C|--1~--1~----1-1-1-1~--1~--1~---|--00--00---0-0-0-0---0-0-0-0---00--00---0-0-0-0---0-0-0-0--|
    .   .     . . . .               ..  ..   . . . .   . . . .   ..  ..   . . . .   . . . .



[1:39 - 2:10]

D|--------------|-----------------------------------|-----------------------------------|
A|--------------|-----------------------------------|-----------------------------------|
F|--------------|-----------------------------------|-----------------------------------|
C|--10~---------|-----------------------------------|-----------------------------------|
G|--8~----------|--00000----00---0------00---00000--|--00000----00---0------00---00000--|
C|--8~----8--5--|--00000----00---00~----00---00000--|--00000----00---00~----00---00000--|
                   .....    ..   .      ..   .....     .....    ..   ..     ..   .....

D|-----------------------------------|-----------------------------------------|
A|-----------------------------------|-----------------------------------------|
F|-----------------------------------|-----------------------------------------|
C|-----------------------------------|-----------------------------------------|
G|--00000----00---0------00---00000--|--00000----00---0------00---00000--------|
C|--00000----00---00~----00---00000--|--00000----00---00~----00---00000--8--5--|
    .....    ..   .      ..   .....     .....    ..   ..     ..   .....



[2:10 - 2:22]

D|---------------------------------------------------|-------------------------------------------|
A|---------------------------------------------------|-------------------------------------------|
F|----------------------------------------------3*b--|-------------------------------------------|
C|---------------------------------------------------|-------------------------------------------|
G|--000---0--0--000---0-000-000---0--0--000----------|--000---0--0--000---0-000-000---0--0--000--|
C|--000---0--0--000---0-000-000---0--0--000----------|--000---0--0--000---0-000-000---0--0--000--|
    ...   .  .  ...   . ... ...   .  .  ...             ...   .  .  ...   . ... ...   .  .  ...



[2:25 - 2:56]

*For Guitar 1, the notes on the F string are slightly heard. Play them at your discretion.

   Guitar 1
D|----------------------------------------------------------------------|
A|----------------------------------------------------------------------|
F|--9999999999999999-7777777777777777-55555555555555555555555555555555--|
C|--7777777777777777-5555555555555555-33333333333333333333333333333333--|
G|--7777777777777777-5555555555555555-33333333333333333333333333333333--|
C|--7777777777777777-5555555555555555-33333333333333333333333333333333--|
 |
D|----------------------------------------------------------------------|-------|
A|----------------------------------------------------------------------|-------|
F|--9999999999999999-7777777777777777-55555555555555555555555555555555--|---9~--|
C|--7777777777777777-5555555555555555-33333333333333333333333333333333--|---7~--|
G|--7777777777777777-5555555555555555-33333333333333333333333333333333--|---7~--|
C|--7777777777777777-5555555555555555-33333333333333333333333333333333--|---7~--|


   Guitar 2
D|--------------t15-p10-h12-t17/19-p12-h15-p12---------------------|
A|--t17-p10-h12--------------------------------t15-p12-p8-h10-h12--|
F|-----------------------------------------------------------------|
C|-----------------------------------------------------------------|
G|-----------------------------------------------------------------|
C|-----------------------------------------------------------------|
 |
D|--------------t15-p10-h12-t17/19-p12-h15-p12---------------------|
A|--t17-p10-h12--------------------------------t15-p12-p8-h10-h12--|
F|-----------------------------------------------------------------|
C|-----------------------------------------------------------------|
G|-----------------------------------------------------------------|
C|-----------------------------------------------------------------|
 |
D|--t19-p12-h15-t17-p10-h12----------------------------------------|
A|--------------------------t19-p12-h15-t17-p10-h12-p10-h12--------|
F|----------------------------------------------------------11/12--|
C|-----------------------------------------------------------------|
G|-----------------------------------------------------------------|
C|-----------------------------------------------------------------|
 |
D|--t19-p12-h15-t17-p10-h12----------------------------------------|
A|--------------------------t19-p12-h15-t17-p10-h12-p10-h12--------|
F|----------------------------------------------------------11/12--|
C|-----------------------------------------------------------------|
G|-----------------------------------------------------------------|
C|-----------------------------------------------------------------|
 |
D|--------------t15-p10-h12-t17/19-p12-h15-p12---------------------|
A|--t17-p10-h12--------------------------------t15-p12-p8-h10-h12--|
F|-----------------------------------------------------------------|
C|-----------------------------------------------------------------|
G|-----------------------------------------------------------------|
C|-----------------------------------------------------------------|
 |
D|--------------t15-p10-h12-t17/19-p12-h15-p12---------------------|
A|--t17-p10-h12--------------------------------t15-p12-p8-h10-h12--|
F|-----------------------------------------------------------------|
C|-----------------------------------------------------------------|
G|-----------------------------------------------------------------|
C|-----------------------------------------------------------------|
 |
D|--t19-p12-h15-t17-p10-h12----------------------------------------|
A|--------------------------t19-p12-h15-t17-p10-h12-p10-h12--------|
F|----------------------------------------------------------11/12--|
C|-----------------------------------------------------------------|
G|-----------------------------------------------------------------|
C|-----------------------------------------------------------------|
 |
D|--t19-p12-h15-t17-p10-h12----------------------------------------|-------|
A|--------------------------t19-p12-h15-t17-p10-h12-p10-h12--------|-------|
F|----------------------------------------------------------11/12--|---9~--|
C|-----------------------------------------------------------------|-------|
G|-----------------------------------------------------------------|-------|
C|-----------------------------------------------------------------|-------|



[END]



************************************

| ~   held note
| .   palm mute
| *   pinch harmonic
| b   bend
| t   tap
| p   pull-off
| h   hammer-on
| /   slide up
| \   slide down

************************************
1 comment total.
0 reply
skaterkid221 wrote on July 25 2012, 09:35 pm

whaaaat!?!? why doesnt this tab have more votes?? :o you must have put a lot of work into this tab! i can finally play the tapping parts in this song!! w00t :D

I want to post or [tab]
guest
You may want to rate the tab now too:
select rating
Please do not post tabs as comments. Select "correction" instead!