Oops, an error
Loading. Please wait.

Family First Tab

5,482 views 39 this week
1 commentread comment
1 2 3 4 5
excellent!
x 5
Autoscroll
+/-
esc
set tempo
stop
Contributor
Difficulty
Tuning
intermediate
C G C F A D
WARNING: You are trying to view
                                    content from Ultimate-Guitar.com
                                    in an unauthorized application,
                                    which is prohibited.

                                    Please use an official Ultimate
                                    Guitar Tabs application for iPhone,
                                    iPad or Android to access legitimate
                                    chords, guitar, bass, and drum tabs
                                    from Ultimate-Guitar.com database.

                                    Type "ultimate guitar tabs" in Apple
                                    App Store's or Android Market's
                                    search to find the application.
-------------------------------------------------------------------------------------------------
                                    WOE, IS ME - "Family First"       
-------------------------------------------------------------------------------------------------

Band: Woe, Is Me
Song: Family First (Ft. Matty Mullins)
Album: Genesi[s]
Track: 10

Tabbed by: Matthew Langston
Email: mdl4208@aol.com

Tuning: Drop C (CGCFAD)



[0:00 - 0:59]

 | Guitar 1
D|-----------------------------------|------------------------------------|
A|-----------------------------------|------------------------------------|
F|-----------------------------------|------------------------------------|
C|--9-9-9-9-9-9-9-9-9-9-9-9-9-9-9-99-|--5-5-5-5-5-5-5-5-5-5-5-5-5-5-5-55--|
G|--9-9-9-9-9-9-9-9-9-9-9-9-9-9-9-99-|--5-5-5-5-5-5-5-5-5-5-5-5-5-5-5-55--|
C|--9-9-9-9-9-9-9-9-9-9-9-9-9-9-9-99-|--5-5-5-5-5-5-5-5-5-5-5-5-5-5-5-55--|
 |
 | Guitar 2
D|--------------------------------------|------------------------------------------------|
A|--------------------------------------|------------------------------------------------|
F|--7-7-7-7-7-7-7-7-11-11-11-9-9-9-7-7--|--14-14-14-14-14-14-14-14-11-11-11-9-9-9-7-7-7--|
C|--x-x-x-x-x-x-x-x-x--x--x--x-x-x-x-x--|--x--x--x--x--x--x--x--x--x--x--x--x-x-x-x-x-x--|
G|--5-5-5-5-5-5-5-5-9--9--9--7-7-7-5-5--|--12-12-12-12-12-12-12-12-9--9--9--7-7-7-5-5-5--|
C|--------------------------------------|------------------------------------------------|


 | Guitar 1
D|-----------------------------------|-------------------------------------------|
A|-----------------------------------|-------------------------------------------|
F|-----------------------------------|------------------14-14-14-14-12-12-12-12--|
C|--0-0-0-0-0-0-0-0-0-0-0-0-0-0-0-0--|--7-7-7-7-7-7-7-7-x--x--x--x--x--x--x--x---|
G|--0-0-0-0-0-0-0-0-0-0-0-0-0-0-0-0--|--7-7-7-7-7-7-7-7-12-12-12-12-10-10-10-10--|
C|--0-0-0-0-0-0-0-0-0-0-0-0-0-0-0-0--|--7-7-7-7-7-7-7-7--------------------------|
 |
 | Guitar 2
D|------------------------------------------------|-----------------------------------|
A|------------------------------------------------|-----------------------------------|
F|--11-12-11-11-11-11-11-11-11-11-11-7-7-7-11-11--|--9-9-9-9-9-9-9-9-6-6-6-6-7-7-7-7--|
C|--x--x--x--x--x--x--x--x--x--x--x--x-x-x-x--x---|--x-x-x-x-x-x-x-x-x-x-x-x-x-x-x-x--|
G|--9--10-9--9--9--9--9--9--9--9--9--5-5-5-9--9---|--7-7-7-7-7-7-7-7-4-4-4-4-5-5-5-5--|
C|------------------------------------------------|-----------------------------------|


 | Guitar 1
D|------------------------------------|------------------------------------|
A|------------------------------------|------------------------------------|
F|------------------------------------|------------------------------------|
C|--9-9-9-9-9-9-9-9-9-9-9-9-9-9-9-99--|--5-5-5-5-5-5-5-5-5-5-5-5-5-5-5-55--|
G|--9-9-9-9-9-9-9-9-9-9-9-9-9-9-9-99--|--5-5-5-5-5-5-5-5-5-5-5-5-5-5-5-55--|
C|--9-9-9-9-9-9-9-9-9-9-9-9-9-9-9-99--|--5-5-5-5-5-5-5-5-5-5-5-5-5-5-5-55--|
 |
 | Guitar 2
D|--------------------------------------|------------------------------------------------|
A|--------------------------------------|------------------------------------------------|
F|--7-7-7-7-7-7-7-7-11-11-11-9-9-9-7-7--|--14-14-14-14-14-14-14-14-11-11-11-9-9-9-7-7-7--|
C|--x-x-x-x-x-x-x-x-x--x--x--x-x-x-x-x--|--x--x--x--x--x--x--x--x--x--x--x--x-x-x-x-x-x--|
G|--5-5-5-5-5-5-5-5-9--9--9--7-7-7-5-5--|--12-12-12-12-12-12-12-12-9--9--9--7-7-7-5-5-5--|
C|--------------------------------------|------------------------------------------------|


 | Guitar 1
D|-----------------------------------|-----------------------------------|
A|-----------------------------------|-----------------------------------|
F|-----------------------------------|-----------------------------------|
C|--0-0-0-0-0-0-0-0-0-0-0-0-0-0-0-0--|--7-7-7-7-7-7-7-7-7-7-7-7-7-7-7-7--|
G|--0-0-0-0-0-0-0-0-0-0-0-0-0-0-0-0--|--7-7-7-7-7-7-7-7-7-7-7-7-7-7-7-7--|
C|--0-0-0-0-0-0-0-0-0-0-0-0-0-0-0-0--|--7-7-7-7-7-7-7-7-7-7-7-7-7-7-7-7--|
 |
 | Guitar 2
D|------------------------------------------------|-------------------------------------------|
A|------------------------------------------------|-------------------------------------------|
F|--11-12-11-11-11-11-11-11-11-11-11-7-7-7-11-11--|--9-9-9-9-9-9-9-9-11-11-11-11-12-12-11-11--|
C|--x--x--x--x--x--x--x--x--x--x--x--x-x-x-x--x---|--x-x-x-x-x-x-x-x-x--x--x--x--x--x--x--x---|
G|--9--10-9--9--9--9--9--9--9--9--9--5-5-5-9--9---|--7-7-7-7-7-7-7-7-9--9--9--9--10-10-9--9---|
C|------------------------------------------------|-------------------------------------------|


 | Guitar 1
D|------------------------------------|------------------------------------|
A|------------------------------------|------------------------------------|
F|------------------------------------|------------------------------------|
C|--9-9-9-9-9-9-9-9-9-9-9-9-9-9-9-99--|--5-5-5-5-5-5-5-5-5-5-5-5-5-5-5-55--|
G|--9-9-9-9-9-9-9-9-9-9-9-9-9-9-9-99--|--5-5-5-5-5-5-5-5-5-5-5-5-5-5-5-55--|
C|--9-9-9-9-9-9-9-9-9-9-9-9-9-9-9-99--|--5-5-5-5-5-5-5-5-5-5-5-5-5-5-5-55--|
 |
 | Guitar 2
D|--------------------------------------|------------------------------------------------|
A|--------------------------------------|------------------------------------------------|
F|--7-7-7-7-7-7-7-7-11-11-11-9-9-9-7-7--|--14-14-14-14-14-14-14-14-11-11-11-9-9-9-7-7-7--|
C|--x-x-x-x-x-x-x-x-x--x--x--x-x-x-x-x--|--x--x--x--x--x--x--x--x--x--x--x--x-x-x-x-x-x--|
G|--5-5-5-5-5-5-5-5-9--9--9--7-7-7-5-5--|--12-12-12-12-12-12-12-12-9--9--9--7-7-7-5-5-5--|
C|--------------------------------------|------------------------------------------------|


 | Guitar 1
D|-----------------------------------|-----------------------------------|
A|-----------------------------------|-----------------------------------|
F|-----------------------------------|-----------------------------------|
C|--0-0-0-0-0-0-0-0-0-0-0-0-0-0-0-0--|--7-7-7-7-7-7-7-7-7-7-7-7-7-7-7-7--|
G|--0-0-0-0-0-0-0-0-0-0-0-0-0-0-0-0--|--7-7-7-7-7-7-7-7-7-7-7-7-7-7-7-7--|
C|--0-0-0-0-0-0-0-0-0-0-0-0-0-0-0-0--|--7-7-7-7-7-7-7-7-7-7-7-7-7-7-7-7--|
 |
 | Guitar 2
D|------------------------------------------------|-----------------------------------|
A|------------------------------------------------|-----------------------------------|
F|--11-12-11-11-11-11-11-11-11-11-11-7-7-7-11-11--|--9-9-9-9-9-9-9-9-6-6-6-6-7-7-7-7--|
C|--x--x--x--x--x--x--x--x--x--x--x--x-x-x-x--x---|--x-x-x-x-x-x-x-x-x-x-x-x-x-x-x-x--|
G|--9--10-9--9--9--9--9--9--9--9--9--5-5-5-9--9---|--7-7-7-7-7-7-7-7-4-4-4-4-5-5-5-5--|
C|------------------------------------------------|-----------------------------------|


 | Guitar 1
D|-----------------------------------|-----------------------------------|
A|-----------------------------------|-----------------------------------|
F|-----------------------------------|-----------------------------------|
C|--9-9-9-9-9-9-9-9-9-9-9-9-9-9-9-9--|--5-5-5-5-5-5-5-5-5-5-5-5-5-5-5-5--|
G|--9-9-9-9-9-9-9-9-9-9-9-9-9-9-9-9--|--5-5-5-5-5-5-5-5-5-5-5-5-5-5-5-5--|
C|--9-9-9-9-9-9-9-9-9-9-9-9-9-9-9-9--|--5-5-5-5-5-5-5-5-5-5-5-5-5-5-5-5--|
 |
 | Guitar 2
D|--------------------------------------|------------------------------------------------|
A|--------------------------------------|------------------------------------------------|
F|--7-7-7-7-7-7-7-7-11-11-11-9-9-9-7-7--|--14-14-14-14-14-14-14-14-11-11-11-9-9-9-7-7-7--|
C|--x-x-x-x-x-x-x-x-x--x--x--x-x-x-x-x--|--x--x--x--x--x--x--x--x--x--x--x--x-x-x-x-x-x--|
G|--5-5-5-5-5-5-5-5-9--9--9--7-7-7-5-5--|--12-12-12-12-12-12-12-12-9--9--9--7-7-7-5-5-5--|
C|--------------------------------------|------------------------------------------------|


 | Guitar 1
D|-----------------------------------|-----------------------------------|
A|-----------------------------------|-----------------------------------|
F|-----------------------------------|-----------------------------------|
C|--0-0-0-0-0-0-0-0-0-0-0-0-0-0-0-0--|--7-7-7-7-7-7-7-7-7-7-7-7-7-7-7-7--|
G|--0-0-0-0-0-0-0-0-0-0-0-0-0-0-0-0--|--7-7-7-7-7-7-7-7-7-7-7-7-7-7-7-7--|
C|--0-0-0-0-0-0-0-0-0-0-0-0-0-0-0-0--|--7-7-7-7-7-7-7-7-7-7-7-7-7-7-7-7--|
 |
 | Guitar 2
D|------------------------------------------------|-----------------------------------|
A|------------------------------------------------|-----------------------------------|
F|--11-12-11-11-11-11-11-11-11-11-11-7-7-7-11-11--|--9-9-9-9-9-9-9-9-6-6-6-6-7-7-7-7--|
C|--x--x--x--x--x--x--x--x--x--x--x--x-x-x-x--x---|--x-x-x-x-x-x-x-x-x-x-x-x-x-x-x-x--|
G|--9--10-9--9--9--9--9--9--9--9--9--5-5-5-9--9---|--7-7-7-7-7-7-7-7-4-4-4-4-5-5-5-5--|
C|------------------------------------------------|-----------------------------------|



[0:59 - 1:13]

D|------------------------------------|-------------------------------------|
A|------------------------------------|-------------------------------------|
F|------------------------------------|-------------------------------------|
C|--12121212-x-5-x-5~--5-5~--5-5-5-5--|--12121212-x-12-x-7~--7-7~--7-7-7-7--|
G|--9-9-9-9--x-5-x-5~--5-5~--5-5-5-5--|--9-9-9-9--x-12-x-7~--7-7~--7-7-7-7--|
C|--9-9-9-9--x-5-x-5~--5-5~--5-5-5-5--|--9-9-9-9--x-12-x-7~--7-7~--7-7-7-7--|

D|------------------------------------|----------------------|
A|------------------------------------|----------------------|
F|------------------------------------|----------------------|
C|--12121212-x-5-x-5~--5-5~--5-5-5-5--|--12121212-x-12-x-7~--|
G|--9-9-9-9--x-5-x-5~--5-5~--5-5-5-5--|--9-9-9-9--x-12-x-7~--|
C|--9-9-9-9--x-5-x-5~--5-5~--5-5-5-5--|--9-9-9-9--x-12-x-7~--|



[1:14 - 1:43]

"Every dream begins with a dreamer..."



[1:43 - 2:05]

 | Guitar 1
D|-----------------------------------|------------------------------------|
A|-----------------------------------|------------------------------------|
F|-----------------------------------|------------------------------------|
C|--9-9-9-9-9-9-9-9-9-9-9-9-9-9-9-99-|--5-5-5-5-5-5-5-5-5-5-5-5-5-5-5-55--|
G|--9-9-9-9-9-9-9-9-9-9-9-9-9-9-9-99-|--5-5-5-5-5-5-5-5-5-5-5-5-5-5-5-55--|
C|--9-9-9-9-9-9-9-9-9-9-9-9-9-9-9-99-|--5-5-5-5-5-5-5-5-5-5-5-5-5-5-5-55--|
 |
 | Guitar 2
D|--------------------------------------|------------------------------------------------|
A|--------------------------------------|------------------------------------------------|
F|--7-7-7-7-7-7-7-7-11-11-11-9-9-9-7-7--|--14-14-14-14-14-14-14-14-11-11-11-9-9-9-7-7-7--|
C|--x-x-x-x-x-x-x-x-x--x--x--x-x-x-x-x--|--x--x--x--x--x--x--x--x--x--x--x--x-x-x-x-x-x--|
G|--5-5-5-5-5-5-5-5-9--9--9--7-7-7-5-5--|--12-12-12-12-12-12-12-12-9--9--9--7-7-7-5-5-5--|
C|--------------------------------------|------------------------------------------------|


 | Guitar 1
D|-----------------------------------|-------------------------------------------|
A|-----------------------------------|-------------------------------------------|
F|-----------------------------------|------------------12-12-12-12-11-11-11-11--|
C|--0-0-0-0-0-0-0-0-0-0-0-0-0-0-0-0--|--7-7-7-7-7-7-7-7-x--x--x--x--x--x--x--x---|
G|--0-0-0-0-0-0-0-0-0-0-0-0-0-0-0-0--|--7-7-7-7-7-7-7-7-10-10-10-10-9--9--9--9---|
C|--0-0-0-0-0-0-0-0-0-0-0-0-0-0-0-0--|--7-7-7-7-7-7-7-7--------------------------|
 |
 | Guitar 2
D|------------------------------------------------|-----------------------------------|
A|------------------------------------------------|-----------------------------------|
F|--11-12-11-11-11-11-11-11-11-11-11-7-7-7-11-11--|--9-9-9-9-9-9-9-9-6-6-6-6-7-7-7-7--|
C|--x--x--x--x--x--x--x--x--x--x--x--x-x-x-x--x---|--x-x-x-x-x-x-x-x-x-x-x-x-x-x-x-x--|
G|--9--10-9--9--9--9--9--9--9--9--9--5-5-5-9--9---|--7-7-7-7-7-7-7-7-4-4-4-4-5-5-5-5--|
C|------------------------------------------------|-----------------------------------|


 | Guitar 1
D|------------------------------------|-------|
A|------------------------------------|-------|
F|------------------------------------|-------|
C|--9-9-9-9-9-9-9-9-9-9-9-9-9-9-9-99--|--5~\--|
G|--9-9-9-9-9-9-9-9-9-9-9-9-9-9-9-99--|--5~\--|
C|--9-9-9-9-9-9-9-9-9-9-9-9-9-9-9-99--|--5~\--|
 |
 | Guitar 2
D|--------------------------------------|--------------------------|
A|--------------------------------------|--------------------------|
F|--7-7-7-7-7-7-7-7-11-11-11-9-9-9-7-7--|---------------9-9-9-7-7--|
C|--x-x-x-x-x-x-x-x-x--x--x--x-x-x-x-x--|--5~\----------x-x-x-x-x--|
G|--5-5-5-5-5-5-5-5-9--9--9--7-7-7-5-5--|--5~\----------7-7-7-5-5--|
C|--------------------------------------|--5~\---------------------|



[2:05 - 2:42]

 | Guitar 1
D|-----------------------------------|-----------------------------------|
A|-----------------------------------|-----------------------------------|
F|-----------------------------------|-----------------------------------|
C|--0-0-0-0-0-0-0-0-0-0-0-0-0-0-0-0--|--7-7-7-7-7-7-7-7-7-7-7-7-7-7-7-7--|
G|--0-0-0-0-0-0-0-0-0-0-0-0-0-0-0-0--|--7-7-7-7-7-7-7-7-7-7-7-7-7-7-7-7--|
C|--0-0-0-0-0-0-0-0-0-0-0-0-0-0-0-0--|--7-7-7-7-7-7-7-7-7-7-7-7-7-7-7-7--|
 |
 | Guitar 2
D|---------------------------------------------------|-------------------------------------------|
A|---------------------------------------------------|-------------------------------------------|
F|--11-12-11-11-11-12-11-11-11-11-11-11-11-12-12-11--|--9-9-9-9-9-9-9-9-11-11-11-11-12-12-11-11--|
C|--x--x--x--x--x--x--x--x--x--x--x--x--x--x--x--x---|--x-x-x-x-x-x-x-x-x--x--x--x--x--x--x--x---|
G|--9--10-9--9--9--10-9--9--9--9--9--9--9--10-10-9---|--7-7-7-7-7-7-7-7-9--9--9--9--10-10-9--9---|
C|---------------------------------------------------|-------------------------------------------|


 | Guitar 1
D|-----------------------------------|-----------------------------------|
A|-----------------------------------|-----------------------------------|
F|-----------------------------------|-----------------------------------|
C|--9-9-9-9-9-9-9-9-9-9-9-9-9-9-9-9--|--5-5-5-5-5-5-5-5-5-5-5-5-5-5-5-5--|
G|--9-9-9-9-9-9-9-9-9-9-9-9-9-9-9-9--|--5-5-5-5-5-5-5-5-5-5-5-5-5-5-5-5--|
C|--9-9-9-9-9-9-9-9-9-9-9-9-9-9-9-9--|--5-5-5-5-5-5-5-5-5-5-5-5-5-5-5-5--|
 |
 | Guitar 2
D|--------------------------------------|------------------------------------------------|
A|--------------------------------------|------------------------------------------------|
F|--7-7-7-7-7-7-7-7-11-11-11-9-9-9-7-7--|--14-14-14-14-14-14-14-14-11-11-11-9-9-9-7-7-7--|
C|--x-x-x-x-x-x-x-x-x--x--x--x-x-x-x-x--|--x--x--x--x--x--x--x--x--x--x--x--x-x-x-x-x-x--|
G|--5-5-5-5-5-5-5-5-9--9--9--7-7-7-5-5--|--12-12-12-12-12-12-12-12-9--9--9--7-7-7-5-5-5--|
C|--------------------------------------|------------------------------------------------|


 | Guitar 1
D|-----------------------------------|-----------------------------------|
A|-----------------------------------|-----------------------------------|
F|-----------------------------------|-----------------------------------|
C|--0-0-0-0-0-0-0-0-0-0-0-0-0-0-0-0--|--7-7-7-7-7-7-7-7-7-7-7-7-7-7-7-7--|
G|--0-0-0-0-0-0-0-0-0-0-0-0-0-0-0-0--|--7-7-7-7-7-7-7-7-7-7-7-7-7-7-7-7--|
C|--0-0-0-0-0-0-0-0-0-0-0-0-0-0-0-0--|--7-7-7-7-7-7-7-7-7-7-7-7-7-7-7-7--|
 |
 | Guitar 2
D|------------------------------------------------|-----------------------------------|
A|------------------------------------------------|-----------------------------------|
F|--11-12-11-11-11-11-11-11-11-11-11-7-7-7-11-11--|--9-9-9-9-9-9-9-9-6-6-6-6-7-7-7-7--|
C|--x--x--x--x--x--x--x--x--x--x--x--x-x-x-x--x---|--x-x-x-x-x-x-x-x-x-x-x-x-x-x-x-x--|
G|--9--10-9--9--9--9--9--9--9--9--9--5-5-5-9--9---|--7-7-7-7-7-7-7-7-4-4-4-4-5-5-5-5--|
C|------------------------------------------------|-----------------------------------|


 | Guitar 1
D|-----------------------------------|-----------------------------------|
A|-----------------------------------|-----------------------------------|
F|-----------------------------------|-----------------------------------|
C|--9-9-9-9-9-9-9-9-9-9-9-9-9-9-9-9--|--5-5-5-5-5-5-5-5-5-5-5-5-5-5-5-5--|
G|--9-9-9-9-9-9-9-9-9-9-9-9-9-9-9-9--|--5-5-5-5-5-5-5-5-5-5-5-5-5-5-5-5--|
C|--9-9-9-9-9-9-9-9-9-9-9-9-9-9-9-9--|--5-5-5-5-5-5-5-5-5-5-5-5-5-5-5-5--|
 |
 | Guitar 2
D|--------------------------------------|------------------------------------------------|
A|--------------------------------------|------------------------------------------------|
F|--7-7-7-7-7-7-7-7-11-11-11-9-9-9-7-7--|--14-14-14-14-14-14-14-14-11-11-11-9-9-9-7-7-7--|
C|--x-x-x-x-x-x-x-x-x--x--x--x-x-x-x-x--|--x--x--x--x--x--x--x--x--x--x--x--x-x-x-x-x-x--|
G|--5-5-5-5-5-5-5-5-9--9--9--7-7-7-5-5--|--12-12-12-12-12-12-12-12-9--9--9--7-7-7-5-5-5--|
C|--------------------------------------|------------------------------------------------|


 | Guitar 1
D|-----------------------------------|-----------------------------------|
A|-----------------------------------|-----------------------------------|
F|-----------------------------------|-----------------------------------|
C|--0-0-0-0-0-0-0-0-0-0-0-0-0-0-0-0--|--7-7-7-7-7-7-7-7-7-7-7-7-7-7-7-7--|
G|--0-0-0-0-0-0-0-0-0-0-0-0-0-0-0-0--|--7-7-7-7-7-7-7-7-7-7-7-7-7-7-7-7--|
C|--0-0-0-0-0-0-0-0-0-0-0-0-0-0-0-0--|--7-7-7-7-7-7-7-7-7-7-7-7-7-7-7-7--|
 |
 | Guitar 2
D|------------------------------------------------|-----------------------------------|
A|------------------------------------------------|-----------------------------------|
F|--11-12-11-11-11-11-11-11-11-11-11-7-7-7-11-11--|--9-9-9-9-9-9-9-9-6-6-6-6-7-7-7-7--|
C|--x--x--x--x--x--x--x--x--x--x--x--x-x-x-x--x---|--x-x-x-x-x-x-x-x-x-x-x-x-x-x-x-x--|
G|--9--10-9--9--9--9--9--9--9--9--9--5-5-5-9--9---|--7-7-7-7-7-7-7-7-4-4-4-4-5-5-5-5--|
C|------------------------------------------------|-----------------------------------|



[2:42 - 3:15]

D|------------------------------------|-----------------------------------|
A|------------------------------------|-----------------------------------|
F|------------------------------------|-----------------------------------|
C|--9-9-9-9-9-9-9-9-9-9-9-9-9-9-9-99--|--5-5-5-5-5-5-5-5-5-5-5-5-5-5-5-5--|
G|--9-9-9-9-9-9-9-9-9-9-9-9-9-9-9-99--|--5-5-5-5-5-5-5-5-5-5-5-5-5-5-5-5--|
C|--9-9-9-9-9-9-9-9-9-9-9-9-9-9-9-99--|--5-5-5-5-5-5-5-5-5-5-5-5-5-5-5-5--|

D|-----------------------------------|---------------------------------------|
A|-----------------------------------|---------------------------------------|
F|-----------------------------------|------------------6-6-6-6-12-12-11-11--|
C|--0-0-0-0-0-0-0-0-0-0-0-0-0-0-0-0--|--7-7-7-7-7-7-7-7-x-x-x-x-x--x--x--x---|
G|--0-0-0-0-0-0-0-0-0-0-0-0-0-0-0-0--|--7-7-7-7-7-7-7-7-4-4-4-4-10-10-9--9---|
C|--0-0-0-0-0-0-0-0-0-0-0-0-0-0-0-0--|--7-7-7-7-7-7-7-7----------------------|

"Every dream begins with a dreamer..."



[END]



************************************

| x   mute string
| ~   held note
| \   slide down

************************************
1 comment total.
0 reply
GraceTheWrong wrote on October 31 2013, 10:24 am

Matty Mullins isn't in this one. He's in "The Walking Dead"

I want to post or [tab]
guest
You may want to rate the tab now too:
select rating
Please do not post tabs as comments. Select "correction" instead!