Oops, an error
Loading. Please wait.

Hell Or High Water Tab

ver1
ver1

Whole song

Interactive

More versions @911Tabs.com
845 views 3 this week
no commentswrite comment
1 2 3 4 5
worth learning
x 2
Autoscroll
+/-
esc
set tempo
stop
Contributor
Difficulty
Tuning
intermediate
C G C F A D
Hey! There's an official Ultimate Guitar app which is ideal
for learning songs when you're away from computer. Get the app
WARNING: You are trying to view
                                    content from Ultimate-Guitar.com
                                    in an unauthorized application,
                                    which is prohibited.

                                    Please use an official Ultimate
                                    Guitar Tabs application for iPhone,
                                    iPad or Android to access legitimate
                                    chords, guitar, bass, and drum tabs
                                    from Ultimate-Guitar.com database.

                                    Type "ultimate guitar tabs" in Apple
                                    App Store's or Android Market's
                                    search to find the application.
Artist: Woe, Is Me
Song: Hell Or High Water
Track: 5
Album: Number[s]



     E  E  E  E  E  E  E   E     E  E  E  E  E  E  E  E   
D||---------------------------|--------------------------|
A||---------------------------|--------------------------|
F||---------------------------|--------------------------|
C||--------------------5S--7--|--------------------------|
G||--------8-----7------------|--------8-----8--8-----8--|
C||--0--0-----0-----0---------|--0--0-----0--7--7-----7--|


                             PM PM PM        PM PM PM         
  E  E  E  E  E  E  E  E     S  S  S  E.  E  S  S  S  E.  E   
--------------------------|----------------------------------|
--------------------------|----------------------------------|
--------------------------|----------------------------------|
--------------------------|----------------------------------|
--------8-----8--8--8--8--|----------------------------------|
-----7-----7--7--7--7--7--|--0--0--0--0---0--0--0--0--0---0--|


                      PM PM PM        PM PM PM                             
  W                   S  S  S  E.  E  S  S  S  E.  E     W                 
-------------------|----------------------------------|-------------------|
-------------------|----------------------------------|-------------------|
-------------------|----------------------------------|-------------------|
-------------------|----------------------------------|-------------------|
-------------------|----------------------------------|-------------------|
-------------------|--0--0--0--0---0--0--0--0--0---0--|-------------------|


  E  E  E  E  E  E  E   E     E  E  E  E  E  E  E  E   
---------------------------|--------------------------|
---------------------------|--------------------------|
---------------------------|--------------------------|
--------------------5S--7--|--------------------------|
--------8-----7------------|--------8-----8--8-----8--|
--0--0-----0-----0---------|--0--0-----0--7--7-----7--|


                             PM PM PM        PM PM PM         
  E  E  E  E  E  E  E  E     S  S  S  E.  E  S  S  S  E.  E   
--------------------------|----------------------------------|
--------------------------|----------------------------------|
--------------------------|----------------------------------|
--------------------------|----------------------------------|
--------8-----8--8--8--8--|----------------------------------|
-----7-----7--7--7--7--7--|--0--0--0--0---0--0--0--0--0---0--|


                      PM PM PM        PM PM PM                             
  W                   S  S  S  E.  E  S  S  S  E.  E     W                 
-------------------|----------------------------------|-------------------|
-------------------|----------------------------------|-------------------|
-------------------|----------------------------------|-------------------|
-------------------|----------------------------------|-------------------|
-------------------|----------------------------------|-------------------|
-------------------|--0--0--0--0---0--0--0--0--0---0--|-------------------|


  Q.     Q.     Q       Q.     Q.     Q       Q.     Q.     Q     
---------------------|---------------------|---------------------|
---------------------|---------------------|---------------------|
---------------------|---------------------|---------------------|
---------------------|---------------------|---------------------|
---------------------|---------------------|---------------------|
--0------8------0----|--5------5------5----|--0------8------0----|


  Q.     Q.     Q       Q.     Q.     Q       Q.     Q.     Q     
---------------------|---------------------|---------------------|
---------------------|---------------------|---------------------|
---------------------|---------------------|---------------------|
---------------------|---------------------|---------------------|
---------------------|---------------------|---------------------|
--5------5------5----|--0------8------0----|--5------5------5----|


  Q.     Q.     Q        Q.      Q.      Q                            
---------------------|------------------------|----------------------|
---------------------|------------------------|----------------------|
---------------------|--12------12------12----|----------------------|
---------------------|------------------------|----------------------|
---------------------|--10------10------10----|----------------------|
--0------8------0----|------------------------|----------------------|


                  PM    PM PM PM PM                                    PM  
  E  H.           E     S  S  S  S  E  Q    E  Q       E  H.           E   
---------------------|------------------------------|---------------------|
---------------------|------------------------------|---------------------|
---------------------|------------------------------|---------------------|
---------------------|------------------------------|---------------------|
---------------------|------------------------------|---------------------|
--0---------------0--|--0--0--0--0--0-------0-------|--0---------------0--|


  PM PM PM PM                                 PM  
  S  S  S  S  E  Q    E  Q       H.           E   
------------------------------|------------------|
------------------------------|------------------|
------------------------------|------------------|
------------------------------|------------------|
------------------------------|------------------|
--0--0--0--0--0-------0-------|---------------0--|


  PM PM PM PM                                    PM  
  S  S  S  S  E  Q    E  Q       E  H.           E   
------------------------------|---------------------|
------------------------------|---------------------|
------------------------------|---------------------|
------------------------------|---------------------|
------------------------------|---------------------|
--0--0--0--0--0-------0-------|--0---------------0--|


  PM PM PM PM PM   PM PM PM PM PM      PM                  PM                
  S  S  S  S  Q    S  S  S  S  Q       W                   W                 
------------------------------------|-------------------|-------------------|
------------------------------------|-------------------|-------------------|
------------------------------------|-------------------|-------------------|
------------------------------------|-------------------|-------------------|
--------------0----------------0----|--L----------------|--L----------------|
--0--0--0--0--0----0--0--0--0--0----|--L----------------|--L----------------|


  PM                  PM                                                   
  W                   W                    E   E   E   E   E   E   E   E   
-------------------|-------------------|----------------------------------|
-------------------|-------------------|----------------------------------|
-------------------|-------------------|----------------------------------|
-------------------|-------------------|----------------------------------|
--L----------------|--L----------------|--12--12--12--12--12--12--12--12--|
--L----------------|--L----------------|--12--12--12--12--12--12--12--12--|


   E   E   E   E   E   E   E   E     E  E  E  E  E  E  E  E   
----------------------------------|--------------------------|
----------------------------------|--------------------------|
----------------------------------|--------------------------|
----------------------------------|--------------------------|
--12--12--12--12--12--12--12--12--|--7--7--7--7--7--7--7--7--|
--12--12--12--12--12--12--12--12--|--7--7--7--7--7--7--7--7--|


  E  E  E  E  E  E  E  E      E   E   E   E   E   E   E   E   
--------------------------|----------------------------------|
--------------------------|----------------------------------|
--------------------------|----------------------------------|
--------------------------|----------------------------------|
--5--5--5--5--5--5--5--5--|--12--12--12--12--12--12--12--12--|
--5--5--5--5--5--5--5--5--|--12--12--12--12--12--12--12--12--|


   E   E   E   E   E   E   E   E     E  E  E  E  E  E  E  E   
----------------------------------|--------------------------|
----------------------------------|--------------------------|
----------------------------------|--------------------------|
----------------------------------|--------------------------|
--12--12--12--12--12--12--12--12--|--7--7--7--7--7--7--7--7--|
--12--12--12--12--12--12--12--12--|--7--7--7--7--7--7--7--7--|


  E  E  E  E  E  Q.         E   E   E   E   E   E   E   E   
------------------------|----------------------------------|
------------------------|----------------------------------|
------------------------|----------------------------------|
------------------------|----------------------------------|
--5--5--5--5--5---------|----------------------------------|
--5--5--5--5--5---------|--12--12--12--12--12--12--12--12--|


   E   E   E   E   E   E   E   E     E  E  E  E  E  E  E  E   
----------------------------------|--------------------------|
----------------------------------|--------------------------|
----------------------------------|--------------------------|
----------------------------------|--------------------------|
----------------------------------|--------------------------|
--12--12--12--12--12--12--12--12--|--5--5--5--5--5--5--5--8--|


  E  E  E  E  E  E  E  E      E   E   E   E   E   E   E   E   
--------------------------|----------------------------------|
--------------------------|----------------------------------|
--------------------------|----------------------------------|
--------------------------|--12--12--12--12--12--12--12--12--|
--------------------------|---8---8---8---8---8---8---8---8--|
--L--8--8--8--7--7--7--7--|---8---8---8---8---8---8---8---8--|


   E   E   E   E   E   E   E   E      E   E   E   E   E   E   E   E   
----------------------------------|----------------------------------|
----------------------------------|----------------------------------|
----------------------------------|----------------------------------|
--12--12--12--12--12--12--12--12--|--14--14--14--14--14--14--14--14--|
---8---8---8---8---8---8---8---8--|--12--12--12--12--12--12--12--12--|
---8---8---8---8---8---8---8---8--|--12--12--12--12--12--12--12--12--|


   E   E   E   E   E   E   E   E      E   E   E   E   E   E   E   E   
----------------------------------|----------------------------------|
----------------------------------|----------------------------------|
----------------------------------|----------------------------------|
--14--14--14--14--14--14--14--14--|--12--12--12--12--12--12--12--12--|
--12--12--12--12--12--12--12--12--|---8---8---8---8---8---8---8---8--|
--12--12--12--12--12--12--12--12--|---8---8---8---8---8---8---8---8--|


   E   E   E   E   E   E   E   E     E  E  E  E  E  E  E  E   
----------------------------------|--------------------------|
----------------------------------|--------------------------|
----------------------------------|--------------------------|
--12--12--12--12--12--12--12--12--|--8--8--8--8--8--8--8--8--|
---8---8---8---8---8---8---8---8--|--5--5--5--5--5--5--5--5--|
---8---8---8---8---8---8---8---8--|--5--5--5--5--5--5--5--5--|


  E  E  E  E  E  E  E  E     W                   W                 
--------------------------|-------------------|-------------------|
--------------------------|-------------------|-------------------|
--------------------------|-------------------|-------------------|
--8--8--8--8--8--8--8--8--|-------------------|-------------------|
--5--5--5--5--5--5--5--5--|--5----------------|--L----------------|
--5--5--5--5--5--5--5--5--|--5----------------|--L----------------|


   W                    W                    W                 
--------------------|--------------------|--------------------|
--------------------|--------------------|--------------------|
--------------------|--------------------|--------------------|
--------------------|--------------------|--------------------|
--12----------------|---L----------------|--10----------------|
--12----------------|---L----------------|--10----------------|


   W                    W                    W                 
--------------------|--------------------|--------------------|
--------------------|--------------------|--------------------|
--------------------|--------------------|--------------------|
--------------------|--------------------|--------------------|
---L----------------|--10----------------|---L----------------|
---L----------------|--10----------------|---L----------------|


  W                   W                    W                 
-------------------|-------------------|--------------------|
-------------------|-------------------|--------------------|
-------------------|-------------------|--------------------|
-------------------|-------------------|--------------------|
--5----------------|--L----------------|--12----------------|
--5----------------|--L----------------|--12----------------|


   W                    W                    W                 
--------------------|--------------------|--------------------|
--------------------|--------------------|--------------------|
--------------------|--------------------|--------------------|
--------------------|--------------------|--------------------|
---L----------------|--10----------------|---L----------------|
---L----------------|--10----------------|---L----------------|


   W                    W                     H        H         
--------------------|--------------------||---------------------|
--------------------|--------------------||---------------------|
--------------------|--------------------||*--------------------|
--------------------|--------------------||*--------------------|
--10----------------|---L----------------||---0-----------------|
--10----------------|---L----------------||---0-----------------|


  H.           Q       W                   W                 
--------------------|-------------------|-------------------|
--------------------|-------------------|-------------------|
--------------------|-------------------|-------------------|
--------------------|-------------------|-------------------|
---------------8----|--L----------------|--L----------------|
---------------8----|--L----------------|--L----------------|


   W                    W                   W                 
--------------------|--------------------|-------------------|
--------------------|--------------------|-------------------|
--------------------|--------------------|-------------------|
--------------------|--------------------|-------------------|
--10----------------|---L----------------|--5----------------|
--10----------------|---L----------------|--5----------------|


  W                   H        H           H.           Q     
-------------------|--------------------|--------------------|
-------------------|--------------------|--------------------|
-------------------|--------------------|--------------------|
-------------------|--------------------|--------------------|
--L----------------|--0-----------------|---------------8----|
--L----------------|--0-----------------|---------------8----|


  W                   W                    W                 
-------------------|-------------------|--------------------|
-------------------|-------------------|--------------------|
-------------------|-------------------|--------------------|
-------------------|-------------------|--------------------|
--L----------------|--L----------------|--10----------------|
--L----------------|--L----------------|--10----------------|


   W                   W                   W                 
--------------------|-------------------|-------------------|
--------------------|-------------------|-------------------|
--------------------|-------------------|-------------------|
--------------------|-------------------|-------------------|
---L----------------|--5----------------|--L----------------|
---L----------------|--5----------------|--L----------------|


  W                   W                   W                 
-------------------|-------------------|-------------------|
-------------------|-------------------|-------------------|
-------------------|-------------------|-------------------|
-------------------|-------------------|-------------------|
--0----------------|--L----------------|--0----------------|
--0----------------|--L----------------|--0----------------|


                          PM PM PM PM PM PM              
  E.  E.  E  Q.      S    S  S  S  S  S  S  H        E   
-----------------------|--------------------------------|
-----------------------|--------------------------------|
-----------------------|--------------------------------|
-----------------------|--------------------------------|
--8---8---8--8S------x-|--0--0--0--0--0--0--------------|
--8---8---8--8S------x-|--0--0--0--0--0--0--------------|


         PM PM PM PM PM       PM PM PM PM PM PM              
  Q.     E  E  E  S  S  E     S  S  S  S  S  S  H        E   
---------------------------|--------------------------------|
---------------------------|--------------------------------|
---------------------------|--------------------------------|
---------------------------|--------------------------------|
---------0--0--0--0--0-----|--0--0--0--0--0--0--------------|
---------0--0--0--0--0-----|--0--0--0--0--0--0--------------|


           PM PM PM PM PM PM     PM PM PM PM PM PM  PM        
  H        S  S  S  S  S  E.     S  S  S  S  S  E.  H         
------------------------------|------------------------------|
------------------------------|------------------------------|
------------------------------|------------------------------|
------------------------------|------------------------------|
-----------0--0--0--0--0--0---|--0--0--0--0--0--0---L--------|
-----------0--0--0--0--0--0---|--0--0--0--0--0--0---L--------|


  PM     PM PM PM    PM PM       PM PM PM PM                                  
  Q.     E  S  S  E  S  S  E     E  E  S  S  H        E     W                 
------------------------------|--------------------------|-------------------|
------------------------------|--------------------------|-------------------|
------------------------------|--------------------------|-------------------|
------------------------------|--------------------------|-------------------|
--L------0--0--0-----0--0-----|--0--0--0--0--------------|-------------------|
--L------0--0--0-----0--0-----|--0--0--0--0--------------|-------------------|


  PM PM PM PM PM PM    PM PM    PM     
  S  S  S  S  S  S  E  E  S  E  S  E   
--------------------------------------|
--------------------------------------|
--------------------------------------|
--------------------------------------|
--------------------------------------|
--0--0--0--0--0--0-----0--0--0--0--0--|


     PM PM PM PM    PM PM PM PM PM PM     
  E  S  S  S  S  E  S  S  S  S  S  S  E   
-----------------------------------------|
-----------------------------------------|
-----------------------------------------|
-----------------------------------------|
-----------------------------------------|
--L--0--0--0--0-----0--0--0--0--0--0-----|


  PM PM PM PM PM PM    PM PM    PM     
  S  S  S  S  S  S  E  E  S  E  S  E   
--------------------------------------|
--------------------------------------|
--------------------------------------|
--------------------------------------|
--------------------------------------|
--0--0--0--0--0--0-----0--0--0--0--0--|


     PM PM PM PM    PM PM PM PM PM PM       PM PM PM PM PM PM  PM PM PM PM PM  
  E  S  S  S  S  E  S  S  S  S  S  S  E     S  S  S  S  S  E.  E  S  E  S  E   
-----------------------------------------|------------------------------------|
-----------------------------------------|------------------------------------|
-----------------------------------------|------------------------------------|
-----------------------------------------|------------------------------------|
-----------------------------------------|--0--0--0--0--0--0---0--0--0--0--0--|
--L--0--0--0--0-----0--0--0--0--0--0-----|--1--1--1--1--1--1---1--1--1--1--1--|


  PM PM PM PM PM PM PM PM PM PM PM PM PM    PM PM PM PM PM PM  PM PM PM PM PM  
  E  S  S  S  S  E  S  S  S  S  S  S  E     S  S  S  S  S  E.  E  S  E  S  E   
-----------------------------------------|------------------------------------|
-----------------------------------------|------------------------------------|
-----------------------------------------|------------------------------------|
-----------------------------------------|------------------------------------|
--L--0--0--0--0--L--0--0--0--0--0--0--L--|--0--0--0--0--0--0---0--0--0--0--0--|
--L--1--1--1--1--L--1--1--1--1--1--1--L--|--1--1--1--1--1--1---1--1--1--1--1--|


  PM PM PM PM PM PM PM PM PM PM PM PM PM                      
  E  S  S  S  S  E  S  S  S  S  S  S  E     W                 
-----------------------------------------|-------------------|
-----------------------------------------|-------------------|
-----------------------------------------|-------------------|
-----------------------------------------|-------------------|
--L--0--0--0--0--L--0--0--0--0--0--0--L--|--0----------------|
--L--1--1--1--1--L--1--1--1--1--1--1--L--|--0----------------|


  W                   W                   W                   W                 
-------------------|-------------------|-------------------|-------------------|
-------------------|-------------------|-------------------|-------------------|
-------------------|-------------------|-------------------|-------------------|
-------------------|-------------------|-------------------|-------------------|
--L----------------|--L----------------|--L----------------|--L----------------|
--L----------------|--L----------------|--L----------------|--L----------------|


  W                                                          
-------------------|-----------------|----------------------|
-------------------|-----------------|----------------------|
-------------------|-----------------|----------------------|
-------------------|-----------------|----------------------|
--L----------------|-----------------|----------------------|
--L----------------|-----------------|----------------------|


----------------------|----------------------|----------------------|
----------------------|----------------------|----------------------|
----------------------|----------------------|----------------------|
----------------------|----------------------|----------------------|
----------------------|----------------------|----------------------|
----------------------|----------------------|----------------------|


----------------------|----------------------|----------------------|
----------------------|----------------------|----------------------|
----------------------|----------------------|----------------------|
----------------------|----------------------|----------------------|
----------------------|----------------------|----------------------|
----------------------|----------------------|----------------------|


                                                E  E  E  E  E  E  E  E   
----------------------|----------------------|--------------------------|
----------------------|----------------------|--------------------------|
----------------------|----------------------|--------------------------|
----------------------|----------------------|--------------------------|
----------------------|----------------------|--0--0--0--0--0--0--0--0--|
----------------------|----------------------|--0--0--0--0--0--0--0--0--|


  E  E  E  E  E  E  E  E      E   E   E   E   E   E   E   E   
--------------------------|----------------------------------|
--------------------------|----------------------------------|
--------------------------|----------------------------------|
--------------------------|----------------------------------|
--0--0--0--0--0--0--0--0--|--10--10--10--10--10--10--10--10--|
--0--0--0--0--0--0--0--0--|--10--10--10--10--10--10--10--10--|


   E   E   E   E   E   E   E   E     E  E  E  E  E  E  E  E   
----------------------------------|--------------------------|
----------------------------------|--------------------------|
----------------------------------|--------------------------|
----------------------------------|--------------------------|
--10--10--10--10--10--10--10--10--|--8--8--8--8--8--8--8--8--|
--10--10--10--10--10--10--10--10--|--8--8--8--8--8--8--8--8--|


  E  E  E  E  E  E  E  E     E  E  E  E  E  E  E  E   
--------------------------|--------------------------|
--------------------------|--------------------------|
--------------------------|--------------------------|
--------------------------|--------------------------|
--8--8--8--8--8--8--8--8--|--8--8--8--8--8--8--8--8--|
--8--8--8--8--8--8--8--8--|--8--8--8--8--8--8--8--8--|


  E  E  E  E  E  E  E  E     E  E  E  E  E  E  E  E   
--------------------------|--------------------------|
--------------------------|--------------------------|
--------------------------|--------------------------|
--------------------------|--------------------------|
--8--8--8--8--8--8--8--8--|--0--0--0--0--0--0--0--0--|
--8--8--8--8--8--8--8--8--|--0--0--0--0--0--0--0--0--|


  E  E  E  E  E  E  E  E      E   E   E   E   E   E   E   E   
--------------------------|----------------------------------|
--------------------------|----------------------------------|
--------------------------|----------------------------------|
--------------------------|----------------------------------|
--0--0--0--0--0--0--0--0--|--10--10--10--10--10--10--10--10--|
--0--0--0--0--0--0--0--0--|--10--10--10--10--10--10--10--10--|


   E   E   E   E   E   E   E   E     E  E  E  E  E  E  E  E   
----------------------------------|--------------------------|
----------------------------------|--------------------------|
----------------------------------|--------------------------|
----------------------------------|--------------------------|
--10--10--10--10--10--10--10--10--|--8--8--8--8--8--8--8--8--|
--10--10--10--10--10--10--10--10--|--8--8--8--8--8--8--8--8--|


  E  E  E  E  E  E  E  E     E  E  E  E  E  E  E  E   
--------------------------|--------------------------|
--------------------------|--------------------------|
--------------------------|--------------------------|
--------------------------|--------------------------|
--8--8--8--8--8--8--8--8--|--8--8--8--8--8--8--8--8--|
--8--8--8--8--8--8--8--8--|--8--8--8--8--8--8--8--8--|


  E  E  E  E  E  E  E  E     W                   E  E  E  E  E  E  E  E   
--------------------------|-------------------|--------------------------|
--------------------------|-------------------|--------------------------|
--------------------------|-------------------|--------------------------|
--------------------------|-------------------|--------------------------|
--8--8--8--8--8--8--8--8--|--0----------------|--------------5-----0--3--|
--8--8--8--8--8--8--8--8--|--0----------------|--0--3--5--3-----3--------|


  E  E  E  E  E  E  E  E     Q    H.             
--------------------------|--------------------||
--------------------------|--------------------||
--------------------------|--------------------||
--------------------------|--------------------||
-----8--8--8--8--8-----0--|--L-----------------||
--0--7--7--7--7--7-----0--|--L-----------------||




Duration Legend
---------------
W - whole
H - half
Q - quarter
E - 8th
S - 16th
T - 32nd
X - 64th
. - note dotted
|-n-|  - n-tuplets


Tablature Legend
----------------
L - tied note
x - dead note
g - grace note
(n) - ghost note
> - accentuded note
NH - natural harmonic
AH - artificial harmonic
TH - tapped harmonic
SH - semi harmonic
PH - pitch harmonic
h - hammer on
p - pull off
b - bend
br - bendRelease
pb - preBend
pbr - preBendRelease
brb - bendReleaseBend
\n/ - tremolo bar dip
\n - tremolo bar dive
-/n - tremolo bar Release up
/n\ - tremolo bar inverted dip
/n - tremolo bar return
-\n - tremolo bar Release down
S - shift slide
s - legato slide
/ -  slide into from below or out of upwards
\ -  slide into from above or out of downwards
~ - vibrato
W - wide vibrato
tr - trill
TP - tremolo picking
T - tapping
S - slap
P - pop
< - fade in
^ - brush up
v - brush down
comments
We did not receive enough feedback on this tab! Please rate:
print report bad tab
1 2 3 4 5
I want to post or [tab]
guest
You may want to rate the tab now too:
select rating
Please do not post tabs as comments. Select "correction" instead!