Oops, an error
Loading. Please wait.

Ive Told You Once Tab

10,069 views 15 this week
1 commentread comment
1 2 3 4 5
excellent!
x 6
Autoscroll
+/-
esc
set tempo
stop
Contributor
Difficulty
Tuning
intermediate
A# F A# D# G C
Hey! There's an official Ultimate Guitar app which is ideal
for learning songs when you're away from computer. Get the app
WARNING: You are trying to view
                                    content from Ultimate-Guitar.com
                                    in an unauthorized application,
                                    which is prohibited.

                                    Please use an official Ultimate
                                    Guitar Tabs application for iPhone,
                                    iPad or Android to access legitimate
                                    chords, guitar, bass, and drum tabs
                                    from Ultimate-Guitar.com database.

                                    Type "ultimate guitar tabs" in Apple
                                    App Store's or Android Market's
                                    search to find the application.
--------------------------------------------------------------------------------------------------
                                   Woe, Is Me - "I've Told You Once"       
--------------------------------------------------------------------------------------------------

Band: Woe, Is Me
Song: I've Told You Once
Album: I've Told You Once - Single
Track: 1

Tabbed by: AsILayDying504
Email: mattack_mattack@aol.com

Tuning: Drop A# (A# F A# D# G C)
                (Bb F Bb Eb G C)


[0:00 - 0:10]

C |-------------------------------------------------------------|
G |-------------------------------------------------------------|
D#|-------------------------------------------------------------|
A#|-------------------------------------------------------------|
F |--4b-----------------1---------------1-----------------------|
A#|------1v--0-0~-0~--0---0-0-0~--1br-0----0-0-0-000--0-0--0-0--|
             .        .   . .              . . . ...  . .  . .

C |-------------------------------------------------------------|
G |-------------------------------------------------------------|
D#|-------------------------------------------------------------|
A#|-------------------------------------------------------------|
F |--4b-----------------1---------------1-----------------------|
A#|------1v--0-0~-0~--0---0-0-0~--1br-0----0-0-0-0--0--0-0------|
             .        .   . .              . . . .  .  . .



[0:11 - 0:34]

C |-------------------------------------------------------------|
G |-------------------------------------------------------------|
D#|-------------------------------------------------------------|
A#|-------------------------------------------------------------|
F |--4b-----------------1---------------1--0-0-0-000--0-0--0-0--|
A#|------1v--0-0~-0~--0---0-0-0~--1br-0----0-0-0-000--0-0--0-0--|
             .        .   . .              . . . ...  . .  . .

C |-------------------------------------------------------------|
G |-------------------------------------------------------------|
D#|-------------------------------------------------------------|
A#|----------------------------------------------0--0--0-0------|
F |--4b-----------------1---------------1--0-0-0-0--0--0-0------|
A#|------1v--0-0~-0~--0---0-0-0~--1br-0----0-0-0-1--1--1-1------|
             .        .   . .              . . . .  .  . .

C |-------------------------------------------------------------|
G |-------------------------------------------------------------|
D#|-------------------------------------------------------------|
A#|-------------------------------------------------------------|
F |--4b-----------------1---------------1--0-0-0-000--0-0--0-0--|
A#|------1v--0-0~-0~--0---0-0-0~--1br-0----0-0-0-000--0-0--0-0--|
             .        .   . .              . . . ...  . .  . .

C |---------------------------------------------------------------------------|
G |---------------------------------------------------------------------------|
D#|---------------------------------------------------------------------------|
A#|----------------------------------------------0--0--0-0-0-0-0--0--0-0-0-0--|
F |--4b-----------------1---------------1--0-0-0-0--0--0-0-0-0-0--0--0-0-0-0--|
A#|------1v--0-0~-0~--0---0-0-0~--1br-0----0-0-0-1--1--1-1-1-1-1--1--1-1-1-1--|
             .        .   . .              . . . .  .  . . . . .  .  . . . .



[0:35 - 0:37]

C |------------------------------------|
G |------------------------------------|
D#|------------------------------------|
A#|------------------------------------|
F |--------5---4-----1-----------------|
A#|--00000---0---0-0---0-1-0-0-0-0000--|
     .....   .   . .   .   . . . ....



[0:38 - 0:48]

C |---------------------|---(Guitar 1)----|-----(Guitar 2)------|-----------------------------------|
G |---------------------|-----------------|---------------------|-----------------------------------|
D#|---------------------|--3-3-3-3-2-2-2--|--10-10-10-10-9-9-9--|-----------------------------------|
A#|--------3-3-3-0-0-0--|--x-x-x-x-x-x-x--|--x--x--x--x--x-x-x--|--------3-3-3-6-6-6-1-1-1-1-1-3-1--|
F |--------3-3-3-0-0-0--|--1-1-1-1-0-0-0--|--8--8--8--8--7-7-7--|--------3-3-3-6-6-6-1-1-1-1-1-3-1--|
A#|--00000-3-3-3-0-0-0--|-----------------|---------------------|--00000-3-3-3-6-6-6-1-1-1-1-1-3-1--|


C |---------------------|---(Guitar 1)----|-----(Guitar 2)------|------------------------|
G |---------------------|-----------------|---------------------|------------------------|
D#|---------------------|--3-3-3-3-2-2-2--|--10-10-10-10-9-9-9--|------------------------|
A#|--------3-3-3-0-0-0--|--x-x-x-x-x-x-x--|--x--x--x--x--x-x-x--|--------3-3-3-6-6-6-6\--|
F |--------3-3-3-0-0-0--|--1-1-1-1-0-0-0--|--8--8--8--8--7-7-7--|--------3-3-3-6-6-6-6\--|
A#|--00000-3-3-3-0-0-0--|-----------------|---------------------|--00000-3-3-3-6-6-6-6\--|



[0:49 - 1:11]

C |--------------------------------------------------|
G |--------------------------------------------------|
D#|--------------------------------------------------|
A#|--------------------------------------------------|
F |--0--0-0-0-0-0--0--0-0-0-0--0-0--0-0--0--0-0-0-0--|
A#|--0--0-0-0-0-0--0--0-0-0-0--0-0--0-0--0--0-0-0-0--|
     .  . . . . .  .  . . . .  . .  . .  .  . . . .

C |--------------------------------------------------|
G |--------------------------------------------------|
D#|--------------------------------------------------|
A#|--------------------------------------------------|
F |--0--0-0-0-0-0--0--0-0-0-0--0-0-------------------|
A#|--0--0-0-0-0-0--0--0-0-0-0--0-0--0-0-----1br------|
     .  . . . . .  .  . . . .  . .

C |--------------------------------------------------|
G |--------------------------------------------------|
D#|--------------------------------------------------|
A#|--------------------------------------------------|
F |-----------------------------------------0-0-0-0--|
A#|--0--0-0-0-0-0--0--0-0-0-0--0-0--0-0--0--0-0-0-0--|
                                            . . . .

C |----------------------------------------------------|
G |----------------------------------------------------|
D#|----------------------------------------------------|
A#|-------------------------------------8--4--x-x-x-x--|
F |-------------------------------------8--4--x-x-x-x--|
A#|--0--0-0-0-0-0--0--0-0-0-0--0-0--0-0-8--4--x-x-x-x--|



[1:12 - 1:45]

  | Guitar 1
C |-------------------------------------------------------------------------|
G |-------------------------------------------------------------------------|
D#|-------------------------------------------------------------------------|
A#|--8~--------------3~-------------10~-------------------------------------|
F |--8~--------------3~-------------10~-------------------------------------|
A#|--8~--------------3~-------------10~-------------------------------------|
  |
  | Guitar 2
C |-------------------------------------------------------------------------|
G |-------------------------------------------------------------------------|
D#|--12~-------------10~------------10\9~---------------9-9-9-9-9/10-10-10--|
A#|--x---------------x--------------x--x----------------x-x-x-x-x-x--x--x---|
F |--10~-------------8~-------------8-\7~---------------7-7-7-7-7/8--8--8---|
A#|-------------------------------------------------------------------------|


  | Guitar 1
C |-------------------------------------------------------------------------|
G |-------------------------------------------------------------------------|
D#|-------------------------------------------------------------------------|
A#|--8~--------------3~-------------10~-------------------------------------|
F |--8~--------------3~-------------10~-------------------------------------|
A#|--8~--------------3~-------------10~-------------------------------------|
  | 
  | Guitar 2
C |-------------------------------------------------------------------------|
G |-------------------------------------------------------------------------|
D#|--17-17-14-12--10-12--10--10~----14-14-14-14-14-14-14\12-12-12-12-12-12--|
A#|--x--x--x--x---x--x---x---x------x--x--x--x--x--x--x--x--x--x--x--x--x---|
F |--15-15-12-10--8--10--8---8~-----12-12-12-12-12-12-12\10-10-10-10-10-10--|
A#|-------------------------------------------------------------------------|


  | Guitar 1
C |--------------------------------------------------------------------------------|
G |--------------------------------------------------------------------------------|
D#|--------------------------------------------------------------------------------|
A#|--8-8-8-8-8-8-------3-3-3-3-3-3-3-10-10-10-10-10-10-------10-10-10-10-10-10-10--|
F |--8-8-8-8-8-8-------3-3-3-3-3-3-3-10-10-10-10-10-10-------10-10-10-10-10-10-10--|
A#|--8-8-8-8-8-8-------3-3-3-3-3-3-3-10-10-10-10-10-10-------10-10-10-10-10-10-10--|
  |
  | Guitar 2
C |--------------------------------------------------------------------------------|
G |--------------------------------------------------------------------------------|
D#|--101010101010------1010101010101012-12-12-12-12-12-------12-12-12-12-14-14-14--|
A#|--x-x-x-x-x-x-------x-x-x-x-x-x-x-x--x--x--x--x--x--------x--x--x--x--x--x--x---|
F |--8-8-8-8-8-8-------8-8-8-8-8-8-8-10-10-10-10-10-10-------10-10-10-10-12-12-12--|
A#|--------------------------------------------------------------------------------|
  |
  | Guitar 3
C |------8--------8-----------------8----------------------------------------------|
G |----------10-------10---8---10-------10---8---10---8-----------------8---10-----|
D#|------------------------------------------------------10---9---10---------------|
A#|--------------------------------------------------------------------------------|
F |--------------------------------------------------------------------------------|
A#|--------------------------------------------------------------------------------|

   
  | Guitar 1
C |-----------------------------------------------------------------------------------|
G |-----------------------------------------------------------------------------------|
D#|-----------------------------------------------------------------------------------|
A#|--8-8-8-8-8-8-8-8-3-3-3-3-3-3-3-3-10-10-10-10-10-10-10-10-10-10-10-10-10-10-10-10--|
F |--8-8-8-8-8-8-8-8-3-3-3-3-3-3-3-3-10-10-10-10-10-10-10-10-10-10-10-10-10-10-10-10--|
A#|--8-8-8-8-8-8-8-8-3-3-3-3-3-3-3-3-10-10-10-10-10-10-10-10-10-10-10-10-10-10-10-10--|
  |
  | Guitar 2
C |----------------------------------------------------------------------------------------------|
G |----------------------------------------------------------------------------------------------|
D#|--10-10-10-17-17-17-12-12-12-14-14-14-10-10-10-10-12-12-12-12-12-12-12-12-9-9-9-9-9/10-10-10--|
A#|--x--x--x--x--x--x--x--x--x--x--x--x--x--x--x--x--x--x--x--x--x--x--x--x--x-x-x-x-x-x--x--x---|
F |--8--8--8--15-15-15-10-10-10-12-12-12-8--8--8--8--10-10-10-10-10-10-10-10-7-7-7-7-7/8--8--8---|
A#|----------------------------------------------------------------------------------------------|


  | Guitar 1
C |--------------------------------------------------------------------------------|
G |--------------------------------------------------------------------------------|
D#|--------------------------------------------------------------------------------|
A#|--8-8-8-8-8-8-------3-3-3-3-3-3-3-10-10-10-10-10-10-------10-10-10-10-10-10-10--|
F |--8-8-8-8-8-8-------3-3-3-3-3-3-3-10-10-10-10-10-10-------10-10-10-10-10-10-10--|
A#|--8-8-8-8-8-8-------3-3-3-3-3-3-3-10-10-10-10-10-10-------10-10-10-10-10-10-10--|
  |
  | Guitar 2
C |--------------------------------------------------------------------------------|
G |--------------------------------------------------------------------------------|
D#|--101010101010------1010101010101012-12-12-12-12-12-------12-12-12-12-14-14-14--|
A#|--x-x-x-x-x-x-------x-x-x-x-x-x-x-x--x--x--x--x--x--------x--x--x--x--x--x--x---|
F |--8-8-8-8-8-8-------8-8-8-8-8-8-8-10-10-10-10-10-10-------10-10-10-10-12-12-12--|
A#|--------------------------------------------------------------------------------|
  |
  | Guitar 3
C |------8--------8-----------------8----------------------------------------------|
G |----------10-------10---8---10-------10---8---10---8-----------------8---10-----|
D#|------------------------------------------------------10---9---10---------------|
A#|--------------------------------------------------------------------------------|
F |--------------------------------------------------------------------------------|
A#|--------------------------------------------------------------------------------|


  | Guitar 1
C |-----------------------------------------------------------------------------------|
G |-----------------------------------------------------------------------------------|
D#|-----------------------------------------------------------------------------------|
A#|--8-8-8-8-8-8-8-8-3-3-3-3-3-3-3-3-10-10-10-10-10-10-10-10-10-10-10-10-10-10-10-10--|
F |--8-8-8-8-8-8-8-8-3-3-3-3-3-3-3-3-10-10-10-10-10-10-10-10-10-10-10-10-10-10-10-10--|
A#|--8-8-8-8-8-8-8-8-3-3-3-3-3-3-3-3-10-10-10-10-10-10-10-10-10-10-10-10-10-10-10-10--|
  |
  | Guitar 2
C |----------------------------------------------------------------------------------------------|
G |----------------------------------------------------------------------------------------------|
D#|--10-10-10-10-10-10-10-10-14-14-14-14-14-14-14-14-12-12-12-12-12-12-12-12-9-9-9-9-9/10-10-10--|
A#|--x--x--x--x--x--x--x--x--x--x--x--x--x--x--x--x--x--x--x--x--x--x--x--x--x-x-x-x-x-x--x--x---|
F |--8--8--8--8--8--8--8--8--12-12-12-12-12-12-12-12-10-10-10-10-10-10-10-10-7-7-7-7-7/8--8--8---|
A#|----------------------------------------------------------------------------------------------|



[1:46 - 2:07]

C |------------------------------------|----------------------------------|
G |------------------------------------|----------------------------------|
D#|------------------------------------|----------------------------------|
A#|------------------------------------|----------------------------------|
F |-----------------------------1------|----------------------------------|
A#|--12br-0~--0-0~--0-0-0-4-1-0---4-1--|--1br-0~--0-0~--0-1b--0-1b--0-1b--|

C |------------------------------------|----------------------------------|
G |------------------------------------|----------------------------------|
D#|------------------------------------|----------------------------------|
A#|------------------------------------|----------------------------------|
F |-----------------------------1------|----------------------------------|
A#|--12br-0~--0-0~--0-0-0-4-1-0---4-1--|--1br-0~--0-0~--0-1b--0-1b--0-1b--|

C |------------------------------------|----------------------------------|
G |------------------------------------|----------------------------------|
D#|------------------------------------|----------------------------------|
A#|------------------------------------|----------------------------------|
F |-----------------------------1------|----------------------------------|
A#|--12br-0~--0-0~--0-0-0-4-1-0---4-1--|--1br-0~--0-0~--0-1b--0-1b--0-1b--|

C |------------------------------------|-------------------|
G |------------------------------------|-------------------|
D#|------------------------------------|-------------------|
A#|------------------------------------|-------------------|
F |-----------------------------1------|-------------------|
A#|--12br-0~--0-0~--0-0-0-4-1-0---4-1--|--1br-0~--0-0~--0--|



[2:08 - 2:31]

C |---------------------------------------------------------------------|
G |---------------------------------------------------------------------|
D#|---------------------------------------------------------------------|
A#|---------------------------------------------------------------------|
F |---------------------------------------------------------------------|
A#|--0~--0~--0-0-0~--12br-0---0-0-0---0-0-0---0-0-0---12br-0-12--0-1-3--|

C |-------------------------------------------------------------------------|
G |-------------------------------------------------------------------------|
D#|-------------------------------------------------------------------------|
A#|-------------------------------------------------------------------------|
F |-------------------------------------------------------------------------|
A#|--0~--0~--0-0-0~--12br-0---0-0-0---0-0-0---0-0-0---12br-0-12--0-1-3-2b5--|

C |---------------------------------------------------------------|
G |---------------------------------------------------------------|
D#|---------------------------------------------------------------|
A#|---------------------------------------------------------------|
F |---------------------------------------------------------------|
A#|--0-0-0~--0-0~--0~--0-0-0-0~--0~--0-0-0~--0-0~--0~--0-1-3-2b5--|

C |--------------------------------------------------------------------|
G |--------------------------------------------------------------------|
D#|--------------------------------------------13-13-----13-13-10------|
A#|--------------------------------------------13-13-----13-13-10-0~---|
F |--------------------------------------------13-13-----13-13-10-0~---|
A#|--0-0-0~--0-0~--0~--0-0-0-0~--0~--0-0-0~--0---------0----------0~---|
                                             .         .



[2:31 - 2:41]

  | Guitar 1
C |------------|
G |------------|
D#|------------|  (Same as the last note in the section before this)
A#|----(0)~----|
F |----(0)~----|
A#|----(0)~----|


  | Guitar 2
C |-------------------------------------------------------------------|
G |-------------------------------------------------------------------|
D#|-------------------------------------------------------------------|
A#|-------------------------------------------------------------------|
F |--0-0-0-0-0-0---0-0-0-0-0---0-0-0---0-0-0-0---0-0-0-0-0-0---0-0-0--|
A#|--0-0-0-0-0-0---0-0-0-0-0---0-0-0---0-0-0-0---0-0-0-0-0-0---0-0-0--|
  |  . . . . . .   . . . . .   . . .   . . . .   . . . . . .   . . .
  |
C |---------------------------------------------------|
G |---------------------------------------------------|
D#|---------------------------------------------------|
A#|---------------------------------------------------|
F |--0-0-0-0-0-0---0-0-0-0-0---0-0-0---0-0-0-0---0-0--|
A#|--0-0-0-0-0-0---0-0-0-0-0---0-0-0---0-0-0-0---0-0--|
     . . . . . .   . . . . .   . . .   . . . .   . .



[2:42 - 2:53]

BA-BA-BA!

C |-------------------------------------------------------------------|
G |-------------------------------------------------------------------|
D#|-------------------------------------------------------------------|
A#|-------------------------------------------------------------------|
F |--0-0-0-0-0-0---0-0-0-0-0---0-0-0---0-0-0-0---0-0-0-0-0-0---x-x-x--|
A#|--0-0-0-0-0-0---0-0-0-0-0---0-0-0---0-0-0-0---0-0-0-0-0-0---x-x-x--|
     . . . . . .   . . . . .   . . .   . . . .   . . . . . .   . . .

C |-------------------------------------------------------------------|
G |-------------------------------------------------------------------|
D#|-------------------------------------------------------------------|
A#|-------------------------------------------------------------------|
F |--0-0-0-0-0-0---0-0-0-0-0---0-0-0---0-0-0-0---0-0-0-0-0-0---0-0-0--|
A#|--0-0-0-0-0-0---0-0-0-0-0---0-0-0---0-0-0-0---0-0-0-0-0-0---0-0-0--|
     . . . . . .   . . . . .   . . .   . . . .   . . . . . .   . . .



[2:53 - 3:18]

C |-------------------------------------------------------------------|
G |-------------------------------------------------------------------|
D#|-------------------------------------------------------------------|
A#|-------------------------------------------------------------------|
F |--0-0-0-0-0-0---------------0-0-0---0-0-0-0-----------------0-0-0--|
A#|--0-0-0-0-0-0---------------0-0-0---0-0-0-0-----------------0-0-0--|
     . . . . . .               . . .   . . . .                 . . .

C |-------------------------------------------------------------------|
G |-------------------------------------------------------------------|
D#|-------------------------------------------------------------------|
A#|-------------------------------------------------------------------|
F |--0-0-0-0-0-0---------------0-0-0---0-0-0-0-----------------0-0-0--|
A#|--0-0-0-0-0-0---------------0-0-0---0-0-0-0-----------------0-0-0--|
     . . . . . .               . . .   . . . .                 . . .

C |--------------------------------------------|--------------------------------------------|
G |--------------------------------------------|--------------------------------------------|
D#|--------------------------------------------|--------------------------------------------|
A#|--------------------------------------------|--------------------------------------------|
F |--0-0-----0-0-0--0-0-0---0-0--0-0-0--0-0-0--|--0-0-----0-0-0--0-0-0---0-0--0-0-0--0-0-0--|
A#|--0-0-----0-0-0--0-0-0---0-0--0-0-0--0-0-0--|--0-0-----0-0-0--0-0-0---0-0--0-0-0--0-0-0--|
     . .     . . .  . . .   . .  . . .  . . .     . .     . . .  . . .   . .  . . .  . . .



[3:19 - 4:13]

C |---------------------------------------------------------------------------------------|
G |---------------------------------------------------------------------------------------|
D#|--Those-are-2's------------------------------------------------------------------------|
A#|---------------------------------------------------------------------------------------|
F |---------------------------------------------------------------------------------xxxx--|
A#|--2~-22~-22~-22~-22~-222~-22~-22~-22~-22~-227~-77~-77~-77~-77~-777~-77~-77~-77~-7xxxx--|


C |---------------------------------------------------------------------------------------|
G |---------------------------------------------------------------------------------------|
D#|---------------------------------------------------------------------------------------|
A#|---------------------------------------------------------------------------------------|
F |---------------------------------------------------------------------------------xxxx--|
A#|--2~-22~-22~-22~-22~-222~-22~-22~-22~-22~-227~-77~-77~-77~-77~-777~-77~-77~-77~-7xxxx--|


C |---------------------------------------------------------------------------------------|
G |---------------------------------------------------------------------------------------|
D#|---------------------------------------------------------------------------------------|
A#|---------------------------------------------------------------------------------------|
F |--2~-22~-22~-22~-22~-222~-22~-22~-22~-22~-227~-77~-77~-77~-77~-777~-77~-77~--7~-7xxxx--|
A#|--2~-22~-22~-22~-22~-222~-22~-22~-22~-22~-227~-77~-77~-77~-77~-777~-77~-77~--7~-7xxxx--|
     .  ..  ..  ..  ..  ...  ..  ..   .  ..  ...  ..  ..  ..  ..  ...  ..  ..   .  .

C |---------------------------------------------------------------------------------------|
G |---------------------------------------------------------------------------------------|
D#|---------------------------------------------------------------------------------------|
A#|---------------------------------------------------------------------------------------|
F |--2~-22~-22~-22~-22~-222~-22~-22~-22~-22~-227~-77~-77~-77~-77~-777~-77~-77~--7~-7xxxx--|
A#|--2~-22~-22~-22~-22~-222~-22~-22~-22~-22~-227~-77~-77~-77~-77~-777~-77~-77~--7~-7xxxx--|
     .  ..  ..  ..  ..  ...  ..  ..   .  ..  ...  ..  ..  ..  ..  ...  ..  ..   .  .



[END]



************************************

| b   bend
| v   vibrato
| .   palm mute
| ~   held note
| br  bend, release
| x   mute string
| \   slide down
| /   slide up

************************************
comments
print report bad tab
1 comment total.
0 reply
GraceTheWrong wrote on November 22 2013, 01:28 pm

Dude, you should tab, "The Walking Dead" and "Stand Up" maybe "A Voice of Hope" :P

I want to post or [tab]
guest
You may want to rate the tab now too:
select rating
Please do not post tabs as comments. Select "correction" instead!