Oops, an error
Loading. Please wait.

Keep Your Enemies Close Tab

ver1
ver1

Whole song

Interactive

More versions @911Tabs.com
2,813 views 1 this week
2 commentsread comments
1 2 3 4 5
excellent!
x 5
Autoscroll
+/-
esc
set tempo
stop
Contributor
Difficulty
Tuning
intermediate
C G C F A D
Hey! There's an official Ultimate Guitar app which is ideal
for learning songs when you're away from computer. Get the app
WARNING: You are trying to view
                                    content from Ultimate-Guitar.com
                                    in an unauthorized application,
                                    which is prohibited.

                                    Please use an official Ultimate
                                    Guitar Tabs application for iPhone,
                                    iPad or Android to access legitimate
                                    chords, guitar, bass, and drum tabs
                                    from Ultimate-Guitar.com database.

                                    Type "ultimate guitar tabs" in Apple
                                    App Store's or Android Market's
                                    search to find the application.
-----------------------------------------------------------------------------------------------
                               WOE, IS ME - "Keep Your Enemies Close"
-----------------------------------------------------------------------------------------------

Band: Woe, Is Me
Song: Keep Your Enemies Close
Album: Number[s]
Track: 4

Tabbed by: AsILayDying504
Email: mattack_mattack@aol.com

Tuning: Drop C (CGCFAD)



[0:00 - 0:13]

D|---------------------------------------------------|------------------------|
A|---------------------------------------------------|------------------------|
F|---------------------------------------------------|------------------------|
C|---------------------------------------------------|------------------------|
G|--------------00-0-0-0---0000----------------------|--------------00-0-0-0--|
C|--00---0000---00-1-1-1---0000---88888888-55555555--|--00---0000---00-1-1-1--|
    .    ...    .. . . .   ....   ........ ........     .    ...    .. . . .


   Guitar 1                                   Guitar 2
D|-----------------------------------|     D|-----------------------------------|
A|-----------------------------------|     A|-----------------------------------|
F|-----------------------------------|     F|-----------------------------------|
C|-----------------------------------|     C|-----------------------------------|
G|--0-------5------------------------|     G|--0-----7-8-7---55555555-44444444--|
C|----3-0-3---3---88888888-55555555--|     C|----3-0----------------------------|



[0:14 - 0:19]

   Guitar 1
D|-----------|
A|-----------|
F|-----------|
C|-----0~----|
G|-----0~----|
C|-----0~----|


   Guitar 2
D|--17------------------------------------------------------------------|
A|-----18-------20----------17brb----------15---------------------------|
F|--------17/19----19-12/14-------17-12/14----14-12/14\12---------------|
C|--------------------------------------------------------12/14---------|
G|--------------------------------------------------------------15\12~--|
C|----------------------------------------------------------------------|



[0:20 - 0:49]

   Guitar 1
D|-------------------------------------------------------------------|
A|-------------------------------------------------------------------|
F|--5-5-5-5-5-5-5-5-5-5-5-5-5-5-5-5-5-5-5-5-5-5-5-5-5-5-5-5-5-5-5-5--|
C|--3-3-3-3-3-3-3-3-3-3-3-3-3-3-3-3-3-3-3-3-3-3-3-3-3-3-3-3-3-3-3-3--|
G|--3-3-3-3-3-3-3-3-3-3-3-3-3-3-3-3-3-3-3-3-3-3-3-3-3-3-3-3-3-3-3-3--|
C|--3-3-3-3-3-3-3-3-3-3-3-3-3-3-3-3-3-3-3-3-3-3-3-3-3-3-3-3-3-3-3-3--|
 |
D|-------------------------------------------------------------------|
A|-------------------------------------------------------------------|
F|--9-9-9-9-9-9-9-9-9-9-9-9-9-9-9-9-9-9-9-9-9-9-9-9-9-9-9-9-9-9-9-9--|
C|--7-7-7-7-7-7-7-7-7-7-7-7-7-7-7-7-7-7-7-7-7-7-7-7-7-7-7-7-7-7-7-7--|
G|--7-7-7-7-7-7-7-7-7-7-7-7-7-7-7-7-7-7-7-7-7-7-7-7-7-7-7-7-7-7-7-7--|
C|--7-7-7-7-7-7-7-7-7-7-7-7-7-7-7-7-7-7-7-7-7-7-7-7-7-7-7-7-7-7-7-7--|
 |
D|-------------------------------------------------------------------|
A|-------------------------------------------------------------------|
F|--5-5-5-5-5-5-5-5-5~----------------5-5-5-5-5-5-5-5-5~-------------|
C|--3-3-3-3-3-3-3-3-3~----------------3-3-3-3-3-3-3-3-3~-------------|
G|--3-3-3-3-3-3-3-3-3~----------------3-3-3-3-3-3-3-3-3~-------------|
C|--3-3-3-3-3-3-3-3-3~----------------3-3-3-3-3-3-3-3-3~-------------|
 |
D|-------------------------------------------------------------------|-------|
A|-------------------------------------------------------------------|-------|
F|--9-9-9-9-9-9-9-9-9-9-9-9-9-9-9-9-7-7-7-7-7-7-7-7-7-7-7-7-7-7-7-7--|-------|
C|--7-7-7-7-7-7-7-7-7-7-7-7-7-7-7-7-5-5-5-5-5-5-5-5-5-5-5-5-5-5-5-5--|---0~--|
G|--7-7-7-7-7-7-7-7-7-7-7-7-7-7-7-7-5-5-5-5-5-5-5-5-5-5-5-5-5-5-5-5--|---0~--|
C|--7-7-7-7-7-7-7-7-7-7-7-7-7-7-7-7-5-5-5-5-5-5-5-5-5-5-5-5-5-5-5-5--|---0~--|


   Guitar 2
D|--17------------------------------------------------------------------|
A|-----18-------20----------17brb----------15---------------------------|
F|--------17/19----19-12/14-------17-12/14----14-12/14\12---------------|
C|--------------------------------------------------------12/14---------|
G|--------------------------------------------------------------15\12~--|
C|----------------------------------------------------------------------|
 |
D|--17------------------------------------------------------------------|
A|-----18-------20----------17brb----------15---------------------------|
F|--------17/19----19-12/14-------17-12/14----14-12/14\12---------------|
C|--------------------------------------------------------12/14---------|
G|--------------------------------------------------------------15\12~--|
C|----------------------------------------------------------------------|
 |
D|--17------------------------------------------------------------------|
A|-----18-------20----------17brb----------15---------------------------|
F|--------17/19----19-12/14-------17-12/14----14-12/14\12---------------|
C|--------------------------------------------------------12/14---------|
G|--------------------------------------------------------------15\12~--|
C|----------------------------------------------------------------------|
 |
D|--17------------------------------------------------------------------|---5+--|
A|-----18-------20----------17brb----------15---------------------------|---5+--|
F|--------17/19----19-12/14-------17-12/14----14-12/14\12---------------|---5+--|
C|--------------------------------------------------------12/14---------|---5+--|
G|--------------------------------------------------------------15\12~--|---5+--|
C|----------------------------------------------------------------------|---5+--|



[0:50 - 1:12]

D|----------------------------------|---------------------------------|
A|----------------------------------|---------------------------------|
F|----------------------------------|---------------------------------|
C|----------------------------------|---------------------------------|
G|--0-0-0-0~--00-00~--0000~--0000~--|--0-0-0-0~--00-00~--0000~--0000--|
C|--1-1-1-1~--11-11~--1111~--1111~--|--1-1-1-1~--11-11~--1111~--1111--|
    . . . .   .. ..   ....   ....      . . . .   .. ..   ....   ....

D|--------------------------------|-----------------------------------|
A|--------------------------------|-----------------------------------|
F|--------------------------------|-----------------------------------|
C|--------------------------------|-----------------------------------|
G|--------------------------------|-----------------------------------|
C|--00~----00-00~--0000~--00-00~--|--00~----00-00~--0000~--00-00~--0--|

D|----------------------------|-------------------------------|
A|----------------------------|-------------------------------|
F|----------------------------|-------------------------------|
C|----------------------------|---------------------------0~--|
G|--------00-00--0000--00-00--|--0----00-00--0000--00-00--0~--|
C|--------00-00--0000--00-00--|--0----00-00--0000--00-00--0~--|



[1:12 - 1:18]

   Guitar 1
D|-----------------------------------------|--------------------------------|
A|-----------------------------------------|--------------------------------|
F|-----------------------------------------|--------------------------------|
C|--------------------------------5-5-5-5--|-----------------------8-8-8-5--|
G|--0---00-12---000-0-12-12-12-12-5-5-5-5--|--0---00-12---000-0-12-8-8-8-5--|
C|--0---00-8----000-0-8--8--8--8--5-5-5-5--|--0---00-8----000-0-8--8-8-8-5--|
        ..      ..  .                             ..      ..  .


   Guitar 2
D|--15/17\15--------------------------|--15/17\15-----------------------|
A|-----------13-----------------------|-----------13--------------------|
F|--------------12brb-----------------|--------------12brb--------------|
C|--------------------14-14-14--------|--------------------14-14-14-----|
G|-----------------------------15-12--|-----------------------------15--|
C|------------------------------------|---------------------------------|



[1:19 - 1:25]

   Guitar 1
D|----------------------------------|----------------------------|
A|----------------------------------|----------------------------|
F|----------------------------------|----------------------------|
C|----------------------------------|----------------------------|
G|----------------------------------|----------------------------|
C|--8-8-8-0-0-0-12~--5-5-5-5-5-5-5--|--8-8-8-0-0-0-12~--5-5-5-5--|


   Guitar 2
D|----------------------------------------------|--------------------------------------|
A|----------------------------------------------|--------------------------------------|
F|----------------------------------------------|--------------------------------------|
C|--------------------12~--15-15-15-------------|--------------------12~--15-15-15-----|
G|--12-12-12-15-15-15---------------10-10-9-10--|--12-12-12-15-15-15---------------12--|
C|----------------------------------------------|--------------------------------------|



[1:26 - 1:31]

   Guitar 1
D|-------------------------------------------------------------------|
A|-------------------------------------------------------------------|
F|-------------------------------------------------------------------|
C|--8-8-8-8-8-8-8-8-8-8-8-8-8-8-8-8-0-0-0-0-0-0-0-0-0-0-0-0-0-0-0-0--|
G|--8-8-8-8-8-8-8-8-8-8-8-8-8-8-8-8-0-0-0-0-0-0-0-0-0-0-0-0-0-0-0-0--|
C|--8-8-8-8-8-8-8-8-8-8-8-8-8-8-8-8-0-0-0-0-0-0-0-0-0-0-0-0-0-0-0-0--|


   Guitar 2
D|-------------------------------------|-----------------------------------|
A|--------------------18----17b--------|--------------------18----17b------|
F|------------------------------17-19--|------------------------------17~--|
C|-----------------15----15------------|-----------------15----15----------|
G|-----------15-17---------------------|-----------15-17-------------------|
C|--15-17-19---------------------------|--15-17-19-------------------------|
    .  .  .  .  .  .     .                .  .  .  .  .  .     .



[1:32 - 1:38]

   Guitar 1
D|-----------------------------------|-----------------------------|
A|-----------------------------------|-----------------------------|
F|-----------------------------------|-----------------------------|
C|--------------------8-8-8-5-5-5-5--|--------------------8-8-8-5--|
G|--0---00-12--0--0-0-8-8-8-5-5-5-5--|--0---00-12--0--0-0-8-8-8-5--|
C|--0---00-8---0--0-0-8-8-8-5-5-5-5--|--0---00-8---0--0-0-8-8-8-5--|
        ..     .  . .                       ..     .  . .


   Guitar 2
D|--15/17\15--------------------------|--15/17\15-----------------------|
A|-----------13-----------------------|-----------13--------------------|
F|--------------12brb-----------------|--------------12brb--------------|
C|--------------------14-14-14--------|--------------------14-14-14-----|
G|-----------------------------15-12--|-----------------------------15--|
C|------------------------------------|---------------------------------|



[1:39 - 1:44]

   Guitar 1
D|----------------------------------|----------------------------|
A|----------------------------------|----------------------------|
F|----------------------------------|----------------------------|
C|----------------------------------|----------------------------|
G|----------------------------------|----------------------------|
C|--8-8-8-0-0-0-12~--5-5-5-5-5-5-5--|--8-8-8-0-0-0-12~--5-5-5-5--|


   Guitar 2
D|----------------------------------------------|--------------------------------------|
A|----------------------------------------------|--------------------------------------|
F|----------------------------------------------|--------------------------------------|
C|--------------------12~--15-15-15-------------|--------------------12~--15-15-15-----|
G|--12-12-12-15-15-15---------------10-10-9-10--|--12-12-12-15-15-15---------------12--|
C|----------------------------------------------|--------------------------------------|



[1:45 - 1:50]

   Guitar 1
D|-------------------------------------------------------------------|
A|-------------------------------------------------------------------|
F|-------------------------------------------------------------------|
C|--8-8-8-8-8-8-8-8-8-8-8-8-8-8-8-8-0-0-0-0-0-0-0-0-0-0-0-0-0-0-0-0--|
G|--8-8-8-8-8-8-8-8-8-8-8-8-8-8-8-8-0-0-0-0-0-0-0-0-0-0-0-0-0-0-0-0--|
C|--8-8-8-8-8-8-8-8-8-8-8-8-8-8-8-8-0-0-0-0-0-0-0-0-0-0-0-0-0-0-0-0--|


   Guitar 2
D|-------------------------------------|-----------------------------------|
A|--------------------18----17b--------|--------------------18----17b------|
F|------------------------------17-19--|------------------------------17~--|
C|-----------------15----15------------|-----------------15----15----------|
G|-----------15-17---------------------|-----------15-17-------------------|
C|--15-17-19---------------------------|--15-17-19-------------------------|
    .  .  .  .  .  .     .                .  .  .  .  .  .     .



[1:50 - 2:04]

   Guitar 1
D|--------------------------------------------------|
A|--------------------------------------------------|
F|--------------------------------------------------|
C|--------------------------------------------------|
G|--0000--00000000---0000--0000--0-0----0000--0000--|
C|--0000--00000000---0000--0000--0-0----0000--0000--|
 |  ....  ........   ....  ....  . .    ....  ....
 |
D|-------------------------------------------|
A|-------------------------------------------|
F|-------------------------------------------|
C|-------------------------------------------|
G|--0000~---0000~--0000~--0-0----0000--0000--|
C|--0000~---0000~--0000~--0-0----0000--0000--|
    ....    ....   ....   . .    ....  ....


   Guitar 2
D|----------------t12/15--------------------|--t12/15--------------------|
A|-----------------------t13-p3-------------|---------t13-p3-------------|
F|------------------------------t9/12\9-p5--|----------------t9/12\9-p5--|
C|------------------------------------------|----------------------------|
G|--(0000--0000)----------------------------|----------------------------|
C|--(0000--0000)----------------------------|----------------------------|
 |   ....  ....
 |
D|--t12-p3--------------------|--t12-p3---------------|
A|---------t13-p3-------------|---------t13-p3--------|
F|----------------t9/12\9-p5--|----------------t9/12--|
C|----------------------------|-----------------------|
G|----------------------------|-----------------------|
C|----------------------------|-----------------------|
 |
D|--t12/15--------------------|--t12/15--------------------|
A|---------t13-p3-------------|---------t13-p3-------------|
F|----------------t9/12\9-p5--|----------------t9/12\9-p5--|
C|----------------------------|----------------------------|
G|----------------------------|----------------------------|
C|----------------------------|----------------------------|
 |
D|--t12-p3--------------------|--t12-p3---------------|
A|---------t13-p3-------------|---------t13-p3--------|
F|----------------t9/12\9-p5--|----------------t9/12--|
C|----------------------------|-----------------------|
G|----------------------------|-----------------------|
C|----------------------------|-----------------------|



[2:05 - 2:22]

D|-----------------------------------|-----------------------------------|
A|-----------------------------------|-----------------------------------|
F|-----------------------------------|-----------------------------------|
C|-----------------------------------|-----------------------------------|
G|--0-0-0-0-0-0-0-0-0-0-0-0-0-0-0-0--|--0-0-0-0-0-0-0-0-0-0-0-0-0-0-0-0--|
C|--1-1-1-1-1-1-1-1-1-1-1-1-1-1-1-1--|--1-1-1-1-1-1-1-1-1-1-1-1-1-1-1-1--|
    . . . . . . . . . . . . . . . .     . . . . . . . . . . . . . . . .

D|-----------------------------------|-----------------------------------|-------|
A|-----------------------------------|-----------------------------------|-------|
F|-----------------------------------|-----------------------------------|-------|
C|-----------------------------------|-----------------------------------|-------|
G|--0-0-0-0-0-0-0-0-0----------------|--0-0-0-0-0-0-0-0-0-0-0-0-0-0-0-0--|---0~--|
C|--0-0-0-0-0-0-0-0-0----------------|--0-0-0-0-0-0-0-0-0-0-0-0-0-0-0-0--|---0~--|
    . . . . . . . . .                   . . . . . . . . . . . . . . . .      .

*If you want to match the song, untune the 6th string while holding the last note ^



[2:23 - 2:29]

Short guitar riff - Can't figure it out



[END]



************************************

| .   palm mute
| ~   held note (or vibrato)
| /   slide up
| brb bend release bend
| \   slide down
| +   harmonic
| b   bend
| t   tap
| p   pull-off

************************************
comments
print report bad tab
2 comments total.
0 reply
cassieskylines wrote on April 13 2012, 12:29 pm

Thanks :) Sounds good

0 reply
skaterkid221 wrote on July 25 2012, 09:37 pm

ya this sounds perfect! even though you don't have that riff at the end, this tab is still amazing. i love your delinquents tab too. are you gonna make any more woe is me tabs??

I want to post or [tab]
guest
You may want to rate the tab now too:
select rating
Please do not post tabs as comments. Select "correction" instead!