Oops, an error
Loading. Please wait.

Mannequin Religion Tab

ver2
ver2

Whole song

More versions @911Tabs.com
895 views 6 this week
1 commentread comment
1 2 3 4 5
excellent!
x 1
Autoscroll
+/-
esc
set tempo
stop
Contributor
Difficulty
Tuning
intermediate
C G C F A D
WARNING: You are trying to view
                                    content from Ultimate-Guitar.com
                                    in an unauthorized application,
                                    which is prohibited.

                                    Please use an official Ultimate
                                    Guitar Tabs application for iPhone,
                                    iPad or Android to access legitimate
                                    chords, guitar, bass, and drum tabs
                                    from Ultimate-Guitar.com database.

                                    Type "ultimate guitar tabs" in Apple
                                    App Store's or Android Market's
                                    search to find the application.
--------------------------------------------------------------------------------------------------
                                 WOE, IS ME - "Mannequin Religion"       
--------------------------------------------------------------------------------------------------

Band: Woe, Is Me
Song: Mannequin Religion
Album: Number[s]
Track: 3

Tabbed by: AsILayDying504
Email: mattack_mattack@aol.com

Tuning: Drop C (CGCFAD)



[0:00 - 0:08]

   Guitar 1
D|--------------------|--------------------|
A|--------------------|--------------------|
F|--------------------|--------------------|
C|--------------------|--------------------|
G|--0-0-0-0000-0-0-0--|--0-0-0-0000-0-0-0--|
C|--0-0-0-0000-0-0-0--|--0-0-0-0000-0-0-0--|
    . . . .... . . .     . . . .... . . .

   Guitar 2
D|---------------|---------------|-----------|---------------|---------------|-----------|
A|---------------|---------------|-----------|---------------|---------------|-----------|
F|---------------|---------------|-----------|---------------|---------------|-----------|
C|---------------|---------------|-----------|---------------|---------------|-----------|
G|--5-------4----|--5-------4----|------5----|--5-------4----|--5-------4----|------5----|
C|----8-5-0---7--|----8-5-0---7--|--5-8---8--|----8-5-0---7--|----8-5-0---7--|--5-8---8--|



[0:08 - 0:17]

D|------------------------4+----------------------------------|
A|-------------------------4+---------------------------------|
F|--------------------------4+--------------------------------|
C|---------------------------4+--------------------------0~---|
G|--0~0~0~-0000-0~0~0~0~------4+---0-0-0-0000-0-0-0-0----0~---|
C|--1~1~1~-1111-1~1~1~1~-------4+--0-0-0-0000-0-0-0-0----0~---|
    . . .  .... . . . .            . . . .... . . . .



[0:17 - 0:44]

   Guitar 1
D|----------------------------------------------------------------------|
A|----------------------------------------------------------------------|
F|----------------------------------------------------------------------|
C|---------(0 x22)--------------------(12 x19 / 5 x3)-------------------|
G|----------------------------------------------------------------------|
C|--0000000000000000000000~-12121212121212121212121212121212121212555~--|
 |
D|-----------------------------------------------------------------------------------|
A|-----------------------------------------------------------------------------------|
F|-----------------------------------------------------------------------------------|
C|--8-8-8-8-8-8-8-8-8-8-8-8-8-8-8-8-10-10-10-10-10-10-10-10-10-10-10-10-10-10-10-10--|
G|--8-8-8-8-8-8-8-8-8-8-8-8-8-8-8-8-10-10-10-10-10-10-10-10-10-10-10-10-10-10-10-10--|
C|--8-8-8-8-8-8-8-8-8-8-8-8-8-8-8-8-10-10-10-10-10-10-10-10-10-10-10-10-10-10-10-10--|
 |
D|----------------------------------------------------------------------|
A|----------------------------------------------------------------------|
F|----------------------------------------------------------------------|
C|---------(0 x22)--------------------(12 x19 / 5 x3)-------------------|
G|----------------------------------------------------------------------|
C|--0000000000000000000000~-12121212121212121212121212121212121212555~--|
 |
D|-----------------------------------------------------------------------------------|
A|-----------------------------------------------------------------------------------|
F|-----------------------------------------------------------------------------------|
C|--8-8-8-8-8-8-8-8-8-8-8-8-8-8-8-8-10-10-10-10-10-10-10-10-10-10-10-10-10-10-10-10--|
G|--8-8-8-8-8-8-8-8-8-8-8-8-8-8-8-8-10-10-10-10-10-10-10-10-10-10-10-10-10-10-10-10--|
C|--8-8-8-8-8-8-8-8-8-8-8-8-8-8-8-8-10-10-10-10-10-10-10-10-10-10-10-10-10-10-10-10--|


   Guitar 2
D|-------------------------------|-----------t12-p8----------------|
A|-----------------------t10-p6--|--(6~)-t10--------t13\10---------|
F|---------t10-p7----------------|-------------------------t10/12--|
C|----------------t10-p7---------|---------------------------------|
G|--t12-p5-----------------------|---------------------------------|
C|-------------------------------|---------------------------------|
 |
D|----------------------t10/12----------------------------|
A|-----------------------------t10-p6-------t13/15\13-p6--|
F|------------------------------------t9/10---------------|
C|---------t10/12\10-p7-----------------------------------|
G|--t12-p5------------------------------------------------|
C|--------------------------------------------------------|
 |
D|----------------------t10/12----------------------------|
A|-----------------------------t10-p6-------t13/15\13-p6--|
F|------------------------------------t9/10---------------|
C|---------t10/12\10-p7-----------------------------------|
G|--t12-p5------------------------------------------------|
C|--------------------------------------------------------|
 |
D|-------------------------------|-----------t12-p8----------------|
A|-----------------------t10-p6--|--(6~)-t10--------t13\10---------|
F|---------t10-p7----------------|-------------------------t10/12--|
C|----------------t10-p7---------|---------------------------------|
G|--t12-p5-----------------------|---------------------------------|
C|-------------------------------|---------------------------------|
 |
D|----------------------t10/12----------------------------|
A|-----------------------------t10-p6-------t13/15\13-p6--|
F|------------------------------------t9/10---------------|
C|---------t10/12\10-p7-----------------------------------|
G|--t12-p5------------------------------------------------|
C|--------------------------------------------------------|
 |
D|----------------------t10/12----------------------------|
A|-----------------------------t10-p6-------t13/15\13-p6--|
F|------------------------------------t9/10---------------|
C|---------t10/12\10-p7-----------------------------------|
G|--t12-p5------------------------------------------------|
C|--------------------------------------------------------|



[0:45 - 0:47]

D|------------|
A|--Fades In--|
F|------------|
C|-----0~-----|
G|-----0~-----|
C|-----0~-----|



[0:48 - 1:01]

   Guitar 1
D|----------------------------------------------------------------------|
A|----------------------------------------------------------------------|
F|----------------------------------------------------------------------|
C|----------------------------------------------------------------------|
G|----------------------------------------------------------------------|
C|--0-00000000000000-3-33333333333333-5-55-55-5-55-55-7-77777777777777--|
 |    ..............   ..............   .  .    .  .    ..............
 |
D|---------------------------------------------------------------------|
A|---------------------------------------------------------------------|
F|---------------------------------------------------------------------|
C|---------------------------------------------------------------------|
G|---------------------------------------------------------------------|
C|--0-00000000000000-3-33333333333333-5-55-55-5-55-55-0-00-00-0-00-00--|
      ..............   ..............   .  .    .  .    .  .    .  .


Guitar 2
D|----------------------------------------------------------------------|
A|----------------------------------------------------------------------|
F|----------------------------------------------------------------------|
C|----------------------------------------------------------------------|
G|--5-55555555555555-8-88888888888888-----------------------------------|
C|------------------------------------5-55-55-5-55-55-7-77777777777777--|
 |    ..............   ..............   .  .    .  .    ..............
 |
D|---------------------------------------------------------------------|
A|---------------------------------------------------------------------|
F|---------------------------------------------------------------------|
C|---------------------------------------------------------------------|
G|--5-55555555555555-8-88888888888888----------------------------------|
C|------------------------------------5-55-55-5-55-55-0-00-00-0-00-00--|
      ..............   ..............   .  .    .  .    .  .    .  .



[1:02 - 1:15]

D|---------------------------------|--------------------------|
A|---------------------------------|--------------------------|
F|---------------------------------|--------------------------|
C|---------------------------------|--------------------------|
G|--0-00-00-0-00-00---0-00--00-00--|--0-00-00-0-00-00---0-00--|
C|--0-00-00-0-00-00---0-00--00-00--|--0-00-00-0-00-00---0-00--|
    . .. .. . .. ..   . ..  .. ..     . .. .. . .. ..   . ..

D|-----------------------------------|--------------------------|
A|-----------------------------------|--------------------------|
F|-----------------------------------|--------------------------|
C|-----------------------------------|--------------------------|
G|--0-0-0-0--0000-0000-0-0--4--------|--0-0-0-0--0000-0000-0-0--|
C|--0-0-0-0--0000-0000-0-0----01-00--|--0-0-0-0--0000-0000-0-0--|
    . . . .  .... .... . .              . . . .  .... .... . .



[1:16 - 1:23]

D|----------------------------------------------------------|
A|----------------------------------------------------------|
F|----------------------------------------------------------|
C|-----------------------------------------------------0~---|
G|--0-0-0-0~----0-0-0-0~---0~--0-0-0-0~----0-0-0-0~----0~---|
C|--1-1-1-1~----1-1-1-1~---1~--1-1-1-1~----1-1-1-1~----0~---|



[1:23 - 1:48]

D|-------------------------------------------------------------|
A|-------------------------------------------------------------|
F|--tp7-(x32)--------------------------------------------------|
C|--------------tp5-(x32)---tp8-(x32)--------------------------|
G|--------------------------------------tp6-(x16)---tp5-(x16)--|
C|-------------------------------------------------------------|

D|-------------------------------------------------------------|
A|-------------------------------------------------------------|
F|--tp7-(x32)--------------------------------------------------|
C|--------------tp5-(x32)---tp8-(x32)--------------------------|
G|--------------------------------------tp6-(x16)---tp5-(x16)--|
C|-------------------------------------------------------------|



[1:48 - 1:56]

D|------------------------------------|------------------------------------|
A|------------------------------------|------------------------------------|
F|------------------------------------|------------------------------------|
C|------------------------------------|------------------------------------|
G|--1--------1------------------------|--1--------1------------------------|
C|----000000---00-00-0-00-00-0-00-00--|----000000---00-00-0-00-00-0-00-00--|
      ......   .  .    .  .    .  .        ......   .  .    .  .    .  .

D|-------------|
A|-------------|
F|-------------|
C|-------------|
G|-------------|
C|--0-00-00-0--|
      .  .



[1:56 - 2:25]

D|-------------------------------|-------------------------------|
A|-------------------------------|-------------------------------|
F|-------------------------------|-------------------------------|
C|-------------------------------|-------------------------------|
G|--00-00-0000--0-00-00-000-000--|--00-00-0000--0-00-00-000-000--|
C|--00-00-0000--0-00-00-000-000--|--00-00-0000--0-00-00-000-000--|
    .. .. ....  . .. .. ... ...     .. .. ....  . .. .. ... ...

D|---------------------------------------|-------------------------------------|
A|---------------------------------------|-------------------------------------|
F|---------------------------------------|-------------------------------------|
C|---------------------------------------|-------------------------------------|
G|--00~-00~-0000~--0~-00~-00~-000~-000~--|--00~-00~-0000~--0~-00~-00~-000-000--|
C|--00~-00~-0000~--0~-00~-00~-000~-000~--|--00~-00~-0000~--0~-00~-00~-000-000--|
    ..  ..  ....   .  ..  ..  ...  ...      ..  ..  ....   .  ..  ..  ... ...

D|---------------------------------------|--------------------|
A|---------------------------------------|--------------------|
F|---------------------------------------|--------------------|
C|---------------------------------------|--------------------|
G|--00~-00~-0000~--0~-00~-00~-000~-000~--|--00~-00~-0000~--0--|
C|--11~-11~-1111~--1~-11~-11~-111~-111~--|--11~-11~-1111~--1--|
    ..  ..  ....   .  ..  ..  ...  ...      ..  ..  ....   .

D|-------------------------------------|-------------------------------------|
A|-------------------------------------|-------------------------------------|
F|-------------------------------------|-------------------------------------|
C|-------------------------------------|-------------------------------------|
G|----------------------------000-000--|----------------------------000-000--|
C|--00~-00~-0000~--0~-00~-00~-000-000--|--00~-00~-0000~--0~-00~-00~-000-000--|
                              ... ...                               ... ...

D|---------------------------|
A|---------------------------|
F|---------------------------|
C|---------------------------|
G|--000-000---000-000---000--|
C|--000-000---000-000---000--|
    ... ...   ... ...   ...



[2:26 - 2:55]

Whatever you want to call the distorted thing at the end.



[END]



************************************

| .   palm mute
| ~   held note
| +   natural harmonic
| t   tap
| p   pull off
| \   slide down
| /   slide up
| tp  tremelo pick (fast picking)

************************************
comments
We did not receive enough feedback on this tab! Please rate:
1 2 3 4 5
1 comment total.
+1 reply
tdwpdood9876543 wrote on August 2 2012, 12:12 pm

much better than the first tab nice job

I want to post or [tab]
guest
You may want to rate the tab now too:
select rating
Please do not post tabs as comments. Select "correction" instead!