Oops, an error
Loading. Please wait.

Vengeance Tab

ver2
ver2

Whole song

Interactive

More versions @911Tabs.com
5,008 views 39 this week
no commentswrite comment
1 2 3 4 5
excellent!
x 4
add to favorites launch autoscroll
font size
0
reset
Autoscroll
+/-
esc
set tempo
stop
Contributor
Difficulty
Tuning
intermediate
A# F A# D# G C
WARNING: You are trying to view
                                    content from Ultimate-Guitar.com
                                    in an unauthorized application,
                                    which is prohibited.

                                    Please use an official Ultimate
                                    Guitar Tabs application for iPhone,
                                    iPad or Android to access legitimate
                                    chords, guitar, bass, and drum tabs
                                    from Ultimate-Guitar.com database.

                                    Type "ultimate guitar tabs" in Apple
                                    App Store's or Android Market's
                                    search to find the application.
-------------------------------------------------------------------------------
                           WOE, IS ME - "Vengeance"       
-------------------------------------------------------------------------------

Band: Woe, Is Me
Song: Vengeance
Album: Number[s] Deluxe Reissue
Track: 1

Tabbed by: AsILayDying504
Email: mattack_mattack@aol.com

Tuning: Drop A# (A# F A# D# G C)
                (Bb F Bb Eb G C)



[0:00 - 0:06]

C |------------------------------|
G |------------------------------|
D#|------------------------------|
A#|---0~-------------------------|
F |---0~--(Fade In)----------0---|
A#|---0~---------------------1---|



[0:07 - 0:21]

C |--------------------------------------------------------------|
G |--------------------------------------------------------------|
D#|--------------------------------------------------------------|
A#|--0---0-0-0-0---0---0-0---0-0-0-0---0-0---0-0-0-0-------------|
F |--0---0-0-0-0---0---0-0---0-0-0-0---0-0---0-0-0-0-------------|
A#|--1---1-1-1-1---1---1-1---1-1-1-1---1-1---1-1-1-1---0-0--0-0--|
     .   . . . .   .   . .   . . . .   . .   . . . .   .    .

C |----------------------------------------------|
G |----------------------------------------------|
D#|----------------------------------------------|
A#|--0---0-0-0-0---0---0-0---0-0-0----0---0---0--|
F |--0---0-0-0-0---0---0-0---0-0-0----0---0---0--|
A#|--1---1-1-1-1---1---1-1---1-1-1----1---1---1--|
     .   . . . .   .   . .   . . .    .   .   .

C |--------------------------------------------------------------|
G |--------------------------------------------------------------|
D#|--------------------------------------------------------------|
A#|--0---0-0-0-0---0---0-0---0-0-0-0---0-0---0-0-0-0-------------|
F |--0---0-0-0-0---0---0-0---0-0-0-0---0-0---0-0-0-0-------------|
A#|--1---1-1-1-1---1---1-1---1-1-1-1---1-1---1-1-1-1---0-0--0-0--|
     .   . . . .   .   . .   . . . .   . .   . . . .   .    .

C |---------------------------------------------------|
G |---------------------------------------------------|
D#|---------------------------------------------------|
A#|--0---0-0-0-0---0---0-0---0-0-0-0---0-0---0-0-0-0--|
F |--0---0-0-0-0---0---0-0---0-0-0-0---0-0---0-0-0-0--|
A#|--1---1-1-1-1---1---1-1---1-1-1-1---1-1---1-1-1-1--|
     .   . . . .   .   . .   . . . .   . .   . . . .



[0:22 - 0:36]

C |--------------------------------------------------------------------------|
G |--------------------------------------------------------------------------|
D#|--------------------------------------------------------------------------|
A#|--------------------------------------------------------------------------|
F |--------------------------------------------------------------------------|
A#|--0--12--0--1--0--000--12--0--1--00000--11--0--1--0--000--11--0--1--0000--|

C |--------------------------------------------------------------------------|
G |--------------------------------------------------------------------------|
D#|--------------------------------------------------------------------------|
A#|--------------------------------------------------------------------------|
F |--------------------------------------------------------------------------|
A#|--0--12--0--1--0--000--12--0--1--00000--11--0--1--0--000--11--0--1--1--1--|
       

                                                              
[0:37 - 0:51]

C |--------------------------------------------------------------------------|---------------------|
G |-------------------- Guitar 2 --------------------------------------------|---------------------|
D#|--------------------------------------------------------------------------|---------------------|
A#|--0-0--0-0--0-0---(-0--0--0--0-)---0-0-0-0---0-0--0-0--0-0-0-0--0-0--0-0--|---------------------|
F |--0-0--0-0--0-0---(-0--0--0--0-)---0-0-0-0---0-0--0-0--0-0-0-0--0-0--0-0--|----2-----1-------3--|
A#|--1-1--1-1--1-1---(-1--1--1--1-)---1-1-1-1---1-1--1-1--1-1-1-1--1-1--1-1--|--\---3-1---1-0-1----|
     . .  . .  . .     .  .  .  .     . . . .   . .  . .  . . . .  . .  . .

C |--------------------------------------------------------------------------|---------------------|
G |-------------------- Guitar 2 --------------------------------------------|---------------------|
D#|--------------------------------------------------------------------------|---------------------|
A#|--0-0--0-0--0-0---(-0--0--0--0-)---0-0-0-0---0-0--0-0--0-0-0-0--0-0--0-0--|---------------------|
F |--0-0--0-0--0-0---(-0--0--0--0-)---0-0-0-0---0-0--0-0--0-0-0-0--0-0--0-0--|----2-----1-------3--|
A#|--1-1--1-1--1-1---(-1--1--1--1-)---1-1-1-1---1-1--1-1--1-1-1-1--1-1--1-1--|--\---3-1---1-0-1----|
     . .  . .  . .     .  .  .  .     . . . .   . .  . .  . . . .  . .  . .



[0:52 - 1:05]

    Guitar 1
C |------------|
G |------------|
D#|------------|
A#|-----0~-----|
F |-----0~-----|
A#|-----0~-----|


    Guitar 2
C |--------------------------------|
G |--This guitar riff is repeated--|
D#|--but has a weird effect on it--|
A#|--------------------------------|
F |--------------------------------|
A#|---000-13b--000-13b---1-01-01---|
      ...      ...         .  .



[1:05 - 1:19]

C |------------------------------------------|------------------------------------------|
G |------------------------------------------|------------------------------------------|
D#|------------------------------------------|------------------------------------------|
A#|------------------------------------------|------------------------------------------|
F |--------------------0000-00-0000-1--------|--------------------0000-00-0000----------|
A#|--000-13b--000-13b--0000-00-0000---01-01--|--000-13b--000-13b--0000-00-0000-1-01-01--|
     ...      ...      .... .. ....   .  .      ...      ...      .... .. ....   .  .

C |------------------------------------------|------------------------------------------|
G |------------------------------------------|------------------------------------------|
D#|------------------------------------------|------------------------------------------|
A#|------------------------------------------|------------------------------------------|
F |--------------------0000-00-0000-1--------|--------------------0000-00-0000-8-7-5-3--|
A#|--000-13b--000-13b--0000-00-0000---01-01--|--000-13b--000-13b--0000-00-0000-8-7-5-3--|
     ...      ...      .... .. ....   .  .      ...      ...      .... .. .... . . . .



[1:20 - 1:26]

    Guitar 1
C |-----------------------------------------------------------------------------|
G |-----------------------------------------------------------------------------|
D#|--12-12-12-12-12-12-12-12-12-12-12-12-12-12-12-12---12/14-14-14-14-14-14-14--|
A#|--x--x--x--x--x--x--x--x--x--x--x--x--x--x--x--x----x--x--x--x--x--x--x--x---|
F |--10-10-10-10-10-10-10-10-10-10-10-10-10-10-10-10---10/12-12-12-12-12-12-12--|
A#|-----------------------------------------------------------------------------|


    Guitar 2
C |-----------------------------------------------------------0-------0---0----|
G |-------------------------------------------------------------6---6-------6--|
D#|--10-10-10-10-10-10-10-10-9-9-9-9-9-9-9-9-7-7-7-7-7-7-7-7------7-----7------|
A#|--x--x--x--x--x--x--x--x--x-x-x-x-x-x-x-x-x-x-x-x-x-x-x-x-------------------|
F |--8--8--8--8--8--8--8--8--7-7-7-7-7-7-7-7-5-5-5-5-5-5-5-5-------------------|
A#|----------------------------------------------------------------------------|



[1:27 - 2:02]

    Guitar 1
C |------------------------------------------------------------------------------|
G |------------------------------------------------------------------------------|
D#|--------------------------------------------------------14-14-14-14-12-12-12--|
A#|--8-8-8-8-8-8-8-8---10-10-10-10-10-10-10----------------12-12-12-12-10-10-10--|
F |--8-8-8-8-8-8-8-8---10-10-10-10-10-10-10----------------12-12-12-12-10-10-10--|
A#|--8-8-8-8-8-8-8-8---10-10-10-10-10-10-10---00-0-0-0-0---12-12-12-12-10-10-10--|
  |                                           ..
C |----------------------------------------------------------------------------------------|
G |----------------------------------------------------------------------------------------|
D#|---------------------------------------14-14-14-14-14-14-14-14-14-14-14-14-14-12-12-12--|
A#|--8-8-8-8-8-8---10-10-10-10-10-10-10---12-12-12-12-12-12-12-12-12-12-12-12-12-10-10-10--|
F |--8-8-8-8-8-8---10-10-10-10-10-10-10---12-12-12-12-12-12-12-12-12-12-12-12-12-10-10-10--|
A#|--8-8-8-8-8-8---10-10-10-10-10-10-10---12-12-12-12-12-12-12-12-12-12-12-12-12-10-10-10--|
  |
C |------------------------------------------------------------------------------|
G |------------------------------------------------------------------------------|
D#|--------------------------------------------------------14-14-14-14-12-12-12--|
A#|--8-8-8-8-8-8-8-8---10-10-10-10-10-10-10----------------12-12-12-12-10-10-10--|
F |--8-8-8-8-8-8-8-8---10-10-10-10-10-10-10----------------12-12-12-12-10-10-10--|
A#|--8-8-8-8-8-8-8-8---10-10-10-10-10-10-10---00-0-0-0-0---12-12-12-12-10-10-10--|
  |                                           ..
C |----------------------------------------------------------------------------------------------|
G |----------------------------------------------------------------------------------------------|
D#|---------------------------------------14-14-14-14-14-14-14-14-14-14-14-14-14-12-12-12--------|
A#|--8-8-8-8-8-8---10-10-10-10-10-10-10---12-12-12-12-12-12-12-12-12-12-12-12-12-10-10-10---0~---|
F |--8-8-8-8-8-8---10-10-10-10-10-10-10---12-12-12-12-12-12-12-12-12-12-12-12-12-10-10-10---0~---|
A#|--8-8-8-8-8-8---10-10-10-10-10-10-10---12-12-12-12-12-12-12-12-12-12-12-12-12-10-10-10---0~---|


    Guitar 2
C |--0-------0---0---|-0-------0---0---|-8-----8-----8---|-8-----8-----5----|
G |----6---6-------6-|---6---6-------6-|---6-----6-----6-|---6-------6---6--|
D#|------7-----7-----|-----5-----5-----|-----7-----7-----|-----7---7--------|  (x4)
A#|------------------|-----------------|-----------------|------------------|
F |------------------|-----------------|-----------------|------------------|
A#|------------------|-----------------|-----------------|------------------|
  |
C |--------|
G |--------|
D#|--------|
A#|---0~---|
F |---0~---|
A#|---0~---|



[2:02 - 2:09]

C |-------------------------|
G |-------------------------|
D#|-------------------------|
A#|---0~----------1~---0~---|
F |---0~----------1~---0~---|
A#|---0~----------1~---0~---|



[2:09 - 2:16]

    Guitar 1
C |---------------------------------------|--------------------------------|
G |---------------------------------------|--------------------------------|
D#|---------------------------------------|--------------------------------|
A#|--0000--00--00000000--00--0000---0000--|--0000--00--00000000--0-0-0000--|
F |--0000--00--00000000--00--0000---0000--|--0000--00--00000000--0-0-0000--|
A#|--1111--11--11111111--11--1111---1111--|--1111--11--11111111--1-1-1111--|
     ....  ..  ........  ..  ....   ....     ....  ..  ........  . . ....


    Guitar 2
C |--------------------------------4+----6+----|--------------------------------|
G |---------------------------------4+----6+---|--------------------------------|
D#|----------------------------------4+----6+--|--------------------------------|
A#|--0000--00--00000000--00--0000-----4+-------|--0000--00--00000000--0-0-0000--|
F |--0000--00--00000000--00--0000--------------|--0000--00--00000000--0-0-0000--|
A#|--1111--11--11111111--11--1111--------------|--1111--11--11111111--1-1-1111--|
     ....  ..  ........  ..  ....                 ....  ..  ........  . . ....



[2:16 - 2:30]

C |--------------------------------------------|--------------------------------------------|
G |--------------------------------------------|--------------------------------------------|
D#|--------------------------------------------|--------------------------------------------|
A#|--------------------------------------------|--------------------------------------------|
F |--0000-0-0000-0000-0-000-0000-0000-0-0-0-0--|--0000-0-0000-0000-0-000-0000-0000-0-0-0-0--|
A#|--0000-0-0000-0000-0-000-0000-0000-0-0-0-0--|--0000-0-0000-0000-0-000-0000-0000-0-0-0-0--|
     .... . .... .... . ... .... .... . . . .     .... . .... .... . ... .... .... . . . .

C |------------------------------------|--------------------|
G |------------------------------------|--------------------|
D#|------------------------------------|--------------------|
A#|------------------------------------|--------------------|
F |----------6----------------3--------|----------6---------|
A#|--0-0-0-5---5-0-3*-0-1-0-1---1-0-1--|--0-0-0-5---5-0-3*--|



[2:31 - 2:44]
 
    Guitar 1
C |-------------------------------------------------------------|
G |-------------------------------------------------------------|
D#|-------------------------------------------------------------|
A#|-------------------------------------------------------------|
F |--0000---000-000-------000000000---0000-00--6----05-------6--|
A#|--0000---000-000-1brb--000000000---0000-00----05----05-03----|
  |  ....   ... ...       .........   .... ..    .  .  .  .
  |
C |---------------------------------------------------------------|
G |---------------------------------------------------------------|
D#|---------------------------------------------------------------|
A#|---------------------------------------------------------------|
F |--0000---000-000-------000000000-000-----0000-0000---0-0-0000--|
A#|--0000---000-000-------000000000-111-----0000-0000---0-0-0000--|
     ....   ... ...       ......... ...     .... ....   . . ....


    Guitar 2
C |-------------------------------------------------------------|
G |-------------------------------------------------------------|
D#|-------------------------------------------------------------|
A#|-------------------------------------------------------------|
F |--0000---000-000-------000000000---0000-00--3----01-------3--|
A#|--0000---000-000-1brb--000000000---0000-00----03----03-01----|
  |  ....   ... ...       .........   .... ..    .  .  .  .
  |
C |---------------------------------------------------------------|
G |---------------------------------------------------------------|
D#|---------------------------------------------------------------|
A#|---------------------------------------------------------------|
F |--0000---000-000-------000000000-----000-0000-0000---0-0-0000--|
A#|--0000---000-000-------000000000-----111-0000-0000---0-0-0000--|
     ....   ... ...       .........     ... .... ....   . . ....



[2:45 - 2:58]

Hance's little solo thing.



[2:58 - 3:13]

C |---------|----------------------------|----------------------------|
G |---------|----------------------------|----------------------------|
D#|---------|----------------------------|----------------------------|
A#|--8-7-5--|----------------------------|----------------------------|
F |--8-7-5--|--0000-0000-00--------------|--0000-0000-00---0000-0000--|
A#|--8-7-5--|--0000-0000-00---00-0-0-00--|--0000-0000-00---0000-0000--|
     . .       .... .... ..   ..            .... .... ..   .... ....

C |----------------------------|-------------------------------|
G |----------------------------|-------------------------------|
D#|----------------------------|-------------------------------|
A#|----------------------------|-------------------------------|
F |--0000-0000-00--------------|--0000-0000-00---0000-0000-00--|
A#|--0000-0000-00---00-0-0-00--|--0000-0000-00---0000-0000-00--|
     .... .... ..   ..            .... .... ..   .... .... ..



[3:13 - 3:42]

C |-----------------------------------------------------------------------------------|
G |-----------------------------------------------------------------------------------|
D#|----------------------------------12-12-12-12-12-12-12-12-12-12-12-12-12-14-14-14--|
A#|--8-8-8-8-8-8-8-8-0-0-0-0-0-0-0-0-10-10-10-10-10-10-10-10-10-10-10-10-10-12-12-12--|  (x4)
F |--8-8-8-8-8-8-8-8-0-0-0-0-0-0-0-0-10-10-10-10-10-10-10-10-10-10-10-10-10-12-12-12--|
A#|--8-8-8-8-8-8-8-8-0-0-0-0-0-0-0-0-10-10-10-10-10-10-10-10-10-10-10-10-10-12-12-12--|

C |-------|
G |-------|
D#|-------|
A#|-------|
F |---0---|
A#|---0---|
      .



[3:42 - 4:17]

Little part before the end, and then... "WE WILL LIVE FOREVER!"

C |--------------------------------------------|--------------------------------------------|
G |--------------------------------------------|--------------------------------------------|
D#|--------------------------------------------|--------------------------------------------|
A#|--------------------------------------------|--------------------------------------------|
F |--0000-0-0000-0000-0-000-0000-0000-0-0-0-0--|--0000-0-0000-0000-0-000-0000-0000-0-0-0-0--|
A#|--0000-0-0000-0000-0-000-0000-0000-0-0-0-0--|--0000-0-0000-0000-0-000-0000-0000-0-0-0-0--|
     .... . .... .... . ... .... .... . . . .     .... . .... .... . ... .... .... . . . .

C |--------------------|
G |--------------------|
D#|--------------------|
A#|--------------------|
F |--0000----000--000--|
A#|--0000----000--000--|
     ....    ...  ...



[END]



************************************

| ~   held note
| .   palm mute
| \   slide down
| b   bend
| x   mute note
| +   natural harmonic
| *   pinch harmonic
| brb bend release bend

************************************
comments
print report bad tab
I want to post or [tab]
guest
You may want to rate the tab now too:
select rating
Please do not post tabs as comments. Select "correction" instead!