Oops, an error
Loading. Please wait.

With Our Friends Behind Us Tab

1,739 views 9 this week
1 commentread comment
1 2 3 4 5
excellent!
x 2
Autoscroll
+/-
esc
set tempo
stop
Contributor
Difficulty
Tuning
intermediate
A# F A# D# G C
WARNING: You are trying to view
                                    content from Ultimate-Guitar.com
                                    in an unauthorized application,
                                    which is prohibited.

                                    Please use an official Ultimate
                                    Guitar Tabs application for iPhone,
                                    iPad or Android to access legitimate
                                    chords, guitar, bass, and drum tabs
                                    from Ultimate-Guitar.com database.

                                    Type "ultimate guitar tabs" in Apple
                                    App Store's or Android Market's
                                    search to find the application.
-------------------------------------------------------------------------------------------------
                           WOE, IS ME - "With Our Friend[s] Behind Us"       
-------------------------------------------------------------------------------------------------

Band: Woe, Is Me
Song: With Our Friend[s] Behind Us (Ft. Caleb Shomo)
Album: Genesi[s]
Track: 4

Tabbed by: Matthew Langston
Email: mattack_mattack@aol.com

Tuning: Drop A# (A# F A# D# G C)
                (Bb F Bb Eb G C)



[0:00 - 0:33]

C |----------------------------------------------------------|
G |----------------------------------------------------------|
D#|----------------------------------------------------------|
A#|--0-0~-0-0-0~-0~-0-0-0~-0-0-0-0-0~-0-0-0-0~-----3------3--|
F |--0-0~-0-0-0~-0~-0-0-0~-0-0-0-0-0~-0-0-0-0~-----2------2--|
A#|--1-1~-1-1-1~-1~-1-1-1~-1-1-1-1-1~-1-1-1-1~-0-0----0-0----|
     . .  . . .  .  . . .  . . . . .  . . . .  . .    . .

C |--------------------------------------------------------|
G |--------------------------------------------------------|
D#|--------------------------------------------------------|
A#|--0-0~-0-0-0~-0~-0-0-0~-0-0-0---------------------------|
F |--0-0~-0-0-0~-0~-0-0-0~-0-0-0---------------------------|
A#|--1-1~-1-1-1~-1~-1-1-1~-1-1-1-1--0-4--0-0--0-0~--1b4r1--|
     . .  . . .  .  . . .  . . .    .    .    .

C |----------------------------------------------------------|
G |----------------------------------------------------------|
D#|----------------------------------------------------------|
A#|--0-0~-0-0-0~-0~-0-0-0~-0-0-0-0-0~-0-0-0-0~-----3------3--|
F |--0-0~-0-0-0~-0~-0-0-0~-0-0-0-0-0~-0-0-0-0~-----2------2--|
A#|--1-1~-1-1-1~-1~-1-1-1~-1-1-1-1-1~-1-1-1-1~-0-0----0-0----|
     . .  . . .  .  . . .  . . . . .  . . . .  . .    . .

C |-----------------------------------------------------------|
G |-----------------------------------------------------------|
D#|-----------------------------------------------------------|
A#|--0-0~-0-0-0~-0~-0-0-0~-0-0-0--------------4--4--1--1--0~--|
F |--0-0~-0-0-0~-0~-0-0-0~-0-0-0--------------4--4--1--1--0~--|
A#|--1-1~-1-1-1~-1~-1-1-1~-1-1-1-1--0-4--0-0--4--4--1--1--0~--|
     . .  . . .  .  . . .  . . .    .    .        

C |------------------------------------------------------|
G |------------------------------------------------------|
D#|------------------------------------------------------|
A#|--1~---0~---------------------------------------------|
F |--1~---0~-------------------0--0-0-0-0-0--0-0--0-0-0--|
A#|--1~---0~-------------------0--0-0-0-0-0--0-0--0-0-0--|
                               .  . . . . .  . .  . . .



[0:34 - 0:49]

C |----------------------------------------------------------------|
G |----------------------------------------------------------------|
D#|----------------------------------------------------------------|
A#|--0-0~--0-0-0-0-0~--0-0~--0-0~----0~--0-0-0-0-0~--0-0~--0-0-0~--|
F |--0-0~--0-0-0-0-0~--0-0~--0-0~----0~--0-0-0-0-0~--0-0~--0-0-0~--|
A#|--0-0~--0-0-0-0-0~--0-0~--0-0~----0~--0-0-0-0-0~--0-0~--0-0-0~--|
     . .   . . . . .   . .   . .     .   . . . . .   . .   . . .

C |----------------------------------------------------------------|
G |----------------------------------------------------------------|
D#|----------------------------------------------------------------|
A#|--0-0~--0-0-0-0-0~--0-0~--0-0~----0~--0-0-0-0-0~--0-0~--0-0-0~--|
F |--0-0~--0-0-0-0-0~--0-0~--0-0~----0~--0-0-0-0-0~--0-0~--0-0-0~--|
A#|--0-0~--0-0-0-0-0~--0-0~--0-0~----0~--0-0-0-0-0~--0-0~--0-0-0~--|
     . .   . . . . .   . .   . .     .   . . . . .   . .   . . .

C |----------------------------------------------------------------|
G |----------------------------------------------------------------|
D#|----------------------------------------------------------------|
A#|--0-0~--0-0-0-0-0~--0-0~--0-0~----0~--0-0-0-0-0~--0-0~--0-0-0~--|
F |--0-0~--0-0-0-0-0~--0-0~--0-0~----0~--0-0-0-0-0~--0-0~--0-0-0~--|
A#|--0-0~--0-0-0-0-0~--0-0~--0-0~----0~--0-0-0-0-0~--0-0~--0-0-0~--|
     . .   . . . . .   . .   . .     .   . . . . .   . .   . . .

C |------------------------------|
G |------------------------------|
D#|------------------------------|
A#|--0-0~--0-0-0-0-0-0-0-0--0-0--|
F |--0-0~--0-0-0-0-0-0-0-0--0-0--|
A#|--0-0~--0-0-0-0-0-0-0-0--0-0--|
     . .   . . . . . . . .  . .



[0:49 - 1:05]

C |------------------------------------------------------|
G |------------------------------------------------------|
D#|------------------------------------------------------|
A#|--4--1--1-1--1-1--1-1--1-1-1---1--1-1--1-4--1--1-1-4--|
F |--4--1--1-1--1-1--1-1--1-1-1---1--1-1--1-4--1--1-1-4--|
A#|--4--1--1-1--1-1--1-1--1-1-1---1--1-1--1-4--1--1-1-4--|
           . .  . .  . .  . . .   .  . .  .       . .

C |------------------------------------------------------|
G |------------------------------------------------------|
D#|------------------------------------------------------|
A#|--4--1--1-1--1-1--1-1--1-1-1---1--1-1--1-4--1--1-1-4--|
F |--4--1--1-1--1-1--1-1--1-1-1---1--1-1--1-4--1--1-1-4--|
A#|--4--1--1-1--1-1--1-1--1-1-1---1--1-1--1-4--1--1-1-4--|
           . .  . .  . .  . . .   .  . .  .       . .

C |------------------------------------------|
G |------------------------------------------|
D#|------------------------------------------|
A#|--4--1--1-1--1-1--1-1--1-1-1---1--1-1--1--|
F |--4--1--1-1--1-1--1-1--1-1-1---1--1-1--1--|
A#|--4--1--1-1--1-1--1-1--1-1-1---1--1-1--1--|
           . .  . .  . .  . . .   .  . .  .

C |---------------------------------------------------------|
G |---------------------------------------------------------|
D#|---------------------------------------------------------|
A#|--4--1--1-1--1-1--1-1--1-1-1---1--1-1--1-4--4--4--4--0~--|
F |--4--1--1-1--1-1--1-1--1-1-1---1--1-1--1-4--4--4--4--0~--|
A#|--4--1--1-1--1-1--1-1--1-1-1---1--1-1--1-4--4--4--4--0~--|
           . .  . .  . .  . . .   .  . .  .



[1:05 - 1:12]

  | Guitar 1
C |-----------------------------------|-----------------------------|
G |-----------------------------------|-----------------------------|
D#|--7-7-7-7-7-7-7-7-7-7-7-7-7-7-7-7--|--7-7-7-7-7-7-7-7-7-7-7-7-7--|
A#|--x-x-x-x-x-x-x-x-x-x-x-x-x-x-x-x--|--x-x-x-x-x-x-x-x-x-x-x-x-x--|
F |--5-5-5-5-5-5-5-5-5-5-5-5-5-5-5-5--|--5-5-5-5-5-5-5-5-5-5-5-5-5--|
A#|-----------------------------------|-----------------------------|      
  |
  | Guitar 2
C |-----------------------------------|-----------------------------|
G |--7-7-7-5-5-5-8-8-8-7-7-7-7-7-7-7--|--7-7-7-5-5-5-8-8-8-7-7-7-7--|
D#|--7-7-7-7-7-7-7-7-7-7-7-7-7-7-7-7--|--7-7-7-7-7-7-7-7-7-7-7-7-7--|
A#|-----------------------------------|-----------------------------|
F |-----------------------------------|-----------------------------|
A#|-----------------------------------|-----------------------------|



[1:13 - 1:51]

  | Guitar 1
C |-----------------------------------|-------------------------------|
G |-----------------------------------|-------------------------------|
D#|-----------------------------------|------------------7-7-7-7-7-7--|
A#|--4-------5-------7-7-7-7-7-7-7-7--|--4-------5-------x-x-x-x-x-x--|
F |--4-0-00-05-00-0007-7-7-7-7-7-7-7--|--4-0-00-05-00-0005-5-5-5-5-5--|
A#|--4-0-00-05-00-0007-7-7-7-7-7-7-7--|--4-0-00-05-00-000-------------|
  |    . .. .  .. ...                      . .. .  .. ...
  |
  | Guitar 2
C |-----------------------------------|-------------------------------|
G |--7-7-7-5-5-5-8-8-8-7-7-7-7-7-7-7--|--7-7-7-5-5-5-8-8-8-7-7-7-7-7--|
D#|--7-7-7-7-7-7-7-7-7-7-7-7-7-7-7-7--|--7-7-7-7-7-7-7-7-7-7-7-7-7-7--|
A#|-----------------------------------|-------------------------------|
F |-----------------------------------|-------------------------------|
A#|-----------------------------------|-------------------------------|


  | Guitar 1
C |-----------------------------------------------|
G |-----------------------------------------------|
D#|------------11-11-9-9-7------------7-7-9-9-11--|
A#|--4-4--4-4--x--x--x-x-x--5-5--5-5--x-x-x-x-x---|
F |--4-4--4-4--9--9--7-7-5--5-5--5-5--5-5-7-7-9---|
A#|--4-4--4-4---------------5-5--5-5--------------|
  |  . .  . .               . .  . .
  |
  | Guitar 2
C |------------------------------------------------------|
G |------------------------------------------------------|
D#|------------14-14-12-12-11------------11-11-12-12-14--|
A#|--4-4--4-4--x--x--x--x--x---5-5--5-5--x--x--x--x--x---|
F |--4-4--4-4--12-12-10-10-9---5-5--5-5--9--9--10-10-12--|
A#|--4-4--4-4------------------5-5--5-5------------------|
  |  . .  . .                  . .  . .


  | Guitar 1
C |-----------------------------------|
G |-----------------------------------|
D#|-----------------------------------|
A#|--0-0-0-0-0-0-0-0-7-7-7-7-7-7-7-7--|
F |--0-0-0-0-0-0-0-0-7-7-7-7-7-7-7-7--|
A#|--0-0-0-0-0-0-0-0-7-7-7-7-7-7-7-7--|
  |
  | Guitar 2
C |-------------------------------------------|
G |-------------------------------------------|
D#|--11-11-11-11-11-12-12-9-9-9-9-9-9-11-9-7--|
A#|--x--x--x--x--x--x--x--x-x-x-x-x-x-x--x-x--|
F |--9--9--9--9--9--10-10-7-7-7-7-7-7-9--7-5--|
A#|-------------------------------------------|


  | Guitar 1
C |-----------------------------------------------|
G |-----------------------------------------------|
D#|------------11-11-9-9-7------------7-7-9-9-11--|
A#|--4-4--4-4--x--x--x-x-x--5-5--5-5--x-x-x-x-x---|
F |--4-4--4-4--9--9--7-7-5--5-5--5-5--5-5-7-7-9---|
A#|--4-4--4-4---------------5-5--5-5--------------|
  |  . .  . .               . .  . .
  |
  | Guitar 2
C |------------------------------------------------------|
G |------------------------------------------------------|
D#|------------14-14-12-12-11------------11-11-12-12-14--|
A#|--4-4--4-4--x--x--x--x--x---5-5--5-5--x--x--x--x--x---|
F |--4-4--4-4--12-12-10-10-9---5-5--5-5--9--9--10-10-12--|
A#|--4-4--4-4------------------5-5--5-5------------------|
  |  . .  . .                  . .  . .


  | Guitar 1
C |-----------------------------------|
G |-----------------------------------|
D#|-----------------------------------|
A#|--0-0-0-0-0-0-0-0-7-7-7-7-7-7-7-7--|
F |--0-0-0-0-0-0-0-0-7-7-7-7-7-7-7-7--|
A#|--0-0-0-0-0-0-0-0-7-7-7-7-7-7-7-7--|
  |
  | Guitar 2
C |-------------------------------------------|
G |-------------------------------------------|
D#|--11-11-11-11-11-12-12-9-9-9-9-9-9-11-9-7--|
A#|--x--x--x--x--x--x--x--x-x-x-x-x-x-x--x-x--|
F |--9--9--9--9--9--10-10-7-7-7-7-7-7-9--7-5--|
A#|-------------------------------------------|


  | Both Guitars
C |-------------------------------------|
G |-------------------------------------|
D#|-------------------------------------|
A#|--0~---------------1~---0~-----------|
F |--0~---------------1~---0~-----------|
A#|--0~---------------1~---0~-----------|



[1:51 - 2:10]

C |----------------------------|--------------------------------|
G |----------------------------|--------------------------------|
D#|----------------------------|--------------------------------|
A#|----------------------------|--------------------------------|
F |----------------------------|--------------------------------|
A#|--0-0-1--4--0-1b--0--0-0-0--|--4--0-1b--0--0-0-12b--0-0-13b--|
     . .       .        . .          .        . .      . .

C |----------------------------|------------------------------|
G |----------------------------|------------------------------|
D#|----------------------------|------------------------------|
A#|----------------------------|------------------------------|
F |----------------------------|------------------------------|
A#|--0-0-1--4--0-1b--0--0-0-0--|--0--0-0--0-0--12b--0-0--0-0--|
     . .       .        . .          .    .         .    .

C |----------------------------|--------------------------------|
G |----------------------------|--------------------------------|
D#|----------------------------|--------------------------------|
A#|----------------------------|--------------------------------|
F |----------------------------|--------------------------------|
A#|--0-0-1--4--0-1b--0--0-0-0--|--4--0-1b--0--0-0-12b--0-0-13b--|
     . .       .        . .          .        . .      . .

C |----------------------------|------------------------------|
G |----------------------------|------------------------------|
D#|----------------------------|------------------------------|
A#|----------------------------|------------------------------|
F |----------------------------|------------------------------|
A#|--0-0-1--4--0-1b--0--0-0-0--|--0--0-0--0-0--12b--0-0--0-0--|
     . .       .        . .          .    .         .    .

C |------------------------------|
G |------------------------------|
D#|------------------------------|
A#|--0~---0-0-0-0-0-0-0-0-00000--|
F |--0~---0-0-0-0-0-0-0-0-00000--|
A#|--0~---0-0-0-0-0-0-0-0-00000--|
          . . . . . . . . ....



[2:11 - 2:25]

C |-------------------------------------------------------------------|
G |-------------------------------------------------------------------|
D#|-------------------------------------------------------------------|
A#|--0-------------1---0-----------1-4-------------6~--6-6-6-6-2-2-2--|
F |--0-0-0-000-0-0-1-0-0-0-0-0-0-0-1-4-0-0-000-0-0-6~--6-6-6-6-2-2-2--|
A#|--0-0-0-000-0-0-1-0-0-0-0-0-0-0-1-4-0-0-000-0-0-6~--6-6-6-6-2-2-2--|
       . . ... . .   .   . . . . .     . . ... . .

C |-------------------------------------------------------------------|
G |-------------------------------------------------------------------|
D#|-------------------------------------------------------------------|
A#|--0-------------1---0-----------1-4-------------6~--6-6-6-6-2-2-2--|
F |--0-0-0-0-0-0-0-1-0-0-0-0-0-0-0-1-4-0-0-0-0-0-0-6~--6-6-6-6-2-2-2--|
A#|--0-0-0-0-0-0-0-1-0-0-0-0-0-0-0-1-4-0-0-0-0-0-0-6~--6-6-6-6-2-2-2--|
       . . . . . .   .   . . . . .     . . . . . .



[2:26 - 2:41]

  | Guitar 1
C |------------------------------------------------------------|
G |------------------------------------------------------------|
D#|------------------------------------------------------------|
A#|--0-------1~--0-----------0-------1~--0~-------0-0-0-0-0-0--|
F |--0-------1~--0-----------0-------1~--0~-------0-0-0-0-0-0--|
A#|--0-------1~--0-----------0-------1~--0~-------0-0-0-0-0-0--|
  |  .           .           .                    . . . . . .
  |
  | Guitar 2
C |----------------------------|
G |----------------------------|
D#|----------------------------|
A#|----------------------------| (x6)
F |----------------------------|
A#|--1-0000-1-1-0000-1-0000-1--|
       ...      ....   ....



[2:42 - 3:15]

C |----------------------------|----------------------------|
G |----------------------------|----------------------------|
D#|----------------------------|----------------------------|
A#|----------------------------|----------------------------|
F |----------------------------|----------------------------|
A#|--1-0000-1-1-0000-1-0000-1--|--1-0000-1-1-0000-1-0000-1--|
       ....     ....   ....         ....     ....   ....

C |----------------------------|----------------------------|
G |----------------------------|----------------------------|
D#|----------------------------|----------------------------|
A#|----------------------------|----------------------------|
F |----------------------------|----------------------------|
A#|--1-0000-1-1-0000-1-0000-1--|--1-0000-1-1-0000-1-0000-1--|
       ....     ....   ....         ....     ....   ....

C |----------------------------|----------------------------|
G |----------------------------|----------------------------|
D#|----------------------------|----------------------------|
A#|----------------------------|----------------------------|
F |----------------------------|----------------------------|
A#|--0-0000-0-0-0000-0-0000-0--|--0-0000-0-0-0000-0-0000-0--|
       ....     ....   ....         ....     ....   ....

C |----------------------------|--------------|---------------|
G |----------------------------|--------------|---------------|
D#|----------------------------|--------------|---------------|
A#|----------------------------|--------------|---------------|
F |----------------------------|--------------|---------------|
A#|--0-0000-0-0-0000-0-0000-0--|--0-0000-0-0--|--0--0-0-0--0--|
       ....     ....   ....         ....            . .

C |-----------------------------|-----------------------------|
G |-----------------------------|-----------------------------|
D#|-----------------------------|-----------------------------|
A#|-----------------------------|-----------------------------|
F |-----------------------------|-----------------------------|
A#|--0--0-0-0--0--0-0-0--0-0-0--|--0--0-0-0--0--0-0-0--0-0-0--|
        . .       . .    . .          . .       . .    . .

C |-----------------------------|-----------------------------|
G |-----------------------------|-----------------------------|
D#|-----------------------------|-----------------------------|
A#|-----------------------------|-----------------------------|
F |-----------------------------|-----------------------------|
A#|--0--0-0-0--0--0-0-0--0-0-0--|--0--0-0-0--0--0-0-0--0-0-0--|
        . .       . .    . .          . .       . .    . .

C |-----------------------------|-----------------------------|
G |-----------------------------|-----------------------------|
D#|-----------------------------|-----------------------------|
A#|-----------------------------|-----------------------------|
F |-----------------------------|-----------------------------|
A#|--0--0-0-0--0--0-0-0--0-0-0--|--0--0-0-0--0--0-0-0--0-0-0--|
        . .       . .    . .          . .       . .    . .

C |-----------------------------|-----------------------------|
G |-----------------------------|-----------------------------|
D#|-----------------------------|-----------------------------|
A#|-----------------------------|-----------------------------|
F |-----------------------------|-----------------------------|
A#|--0--0-0-0--0--0-0-0--0-0-0--|--0--0-0-0--0--0-0-0--0-0-0--|
        . .       . .    . .          . .       . .    . .



[3:16 - 3:46]

  | Guitar 1
C |-------------------------------------------------------------------|
G |-------------------------------------------------------------------|
D#|--------9-9-9-9-9-9-9-9-9-7-7-7-7----------------------------------|
A#|--77777-x-x-x-x-x-x-x-x-x-x-x-x-x-4444-------0000--------00000000--|
F |--77777-7-7-7-7-7-7-7-7-7-5-5-5-5-4444-------0000--------00000000--|
A#|--77777---------------------------4444-------0000--------00000000--|
  |  .....                           ....       ....        ........
  |
  | Guitar 2
C |--5-5-5-5-5-5-4-5-5-5-5-5-4-5-4-5-5-5-5-5-5-5-4-5-9-9-9-9-5-5-5-5--|
G |--5-5-5-5-5-5-5-5-5-5-5-5-5-5-5-5----------------------------------|
D#|-------------------------------------------------------------------|
A#|-------------------------------------------------------------------|
F |-------------------------------------------------------------------|
A#|-------------------------------------------------------------------|


  | Guitar 1
C |-------------------------------------------------------------------|
G |-------------------------------------------------------------------|
D#|--------9-9-9-9-9-9-9-9-9-7-7-7-7----------------------------------|
A#|--77777-x-x-x-x-x-x-x-x-x-x-x-x-x-4444-------0000--------00000000--|
F |--77777-7-7-7-7-7-7-7-7-7-5-5-5-5-4444-------0000--------00000000--|
A#|--77777---------------------------4444-------0000--------00000000--|
  |  .....                           ....       ....        ........
  |
  | Guitar 2
C |--5-5-5-5-5-5-4-5-5-5-5-5-4-5-4-5-5-5-5-5-5-5-4-5-9-9-9-9-5-5-5-5--|
G |--5-5-5-5-5-5-5-5-5-5-5-5-5-5-5-5----------------------------------|
D#|-------------------------------------------------------------------|
A#|-------------------------------------------------------------------|
F |-------------------------------------------------------------------|
A#|-------------------------------------------------------------------|


  | Both Guitars
C |--------------------------------------------------------------------|
G |--------------------------------------------------------------------|
D#|--------------------------------------------------------------------|
A#|--------------------------------------------------------------------|
F |--------------------------------------------------------------------|
A#|--7777777777777777777777777777777700000000000000000000000000000000--|


  | Both Guitars
C |---------------------------------------|
G |---------------------------------------|
D#|---------------------------------------|
A#|--4--4-4-4--4-------2-2-2--2------0~---|
F |--4--4-4-4--4-------2-2-2--2------0~---|
A#|--4--4-4-4--4-------2-2-2--2------0~---|



[3:47 - 3:55]

C |----------------------------|----------------------------|
G |----------------------------|----------------------------|
D#|----------------------------|----------------------------|
A#|----------------------------|----------------------------|
F |----------------------------|----------------------------|
A#|--1-0000-1-1-0000-1-0000-1--|--1-0000-1-1-0000-0---------|
       ....     ....   ....         ....     ....

C |----------------------------|----------------------------|
G |----------------------------|----------------------------|
D#|----------------------------|----------------------------|
A#|----------------------------|----------------------------|
F |----------------------------|----------------------------|
A#|--1-0000-1-1-0000-1---------|--1-0000-1-1-0000-1-0000-1--|
       ....     ....                ....     ....   ....



[END]



************************************

| .   palm mute
| ~   held note
| br  bend, release
| x   mute string
| b   bend

************************************
comments
We did not receive enough feedback on this tab! Please rate:
print report bad tab
1 2 3 4 5
1 comment total.
0 reply
OMYGO$HIT$JOSH wrote on November 19 2012, 07:18 pm

Best song on the album imo.

I want to post or [tab]
guest
You may want to rate the tab now too:
select rating
Please do not post tabs as comments. Select "correction" instead!