Oops, an error
Loading. Please wait.

Break The Fangs Of The Wicked Tab

ver1
ver1

Whole song

Interactive

More versions @911Tabs.com
5,111 views 1 this week
8 commentsread comments
1 2 3 4 5
excellent!
x 6
Autoscroll
+/-
esc
set tempo
stop
Contributor
Hey! There's an official Ultimate Guitar app which is ideal
for learning songs when you're away from computer. Get the app
WARNING: You are trying to view
                                    content from Ultimate-Guitar.com
                                    in an unauthorized application,
                                    which is prohibited.

                                    Please use an official Ultimate
                                    Guitar Tabs application for iPhone,
                                    iPad or Android to access legitimate
                                    chords, guitar, bass, and drum tabs
                                    from Ultimate-Guitar.com database.

                                    Type "ultimate guitar tabs" in Apple
                                    App Store's or Android Market's
                                    search to find the application.
This is the portion in the "left" speaker i believe, Enjoy!!


Eb :---------------------|---------------------|------------------|
Bb :---------------------|---------------------|------------------|
Gb :---------------------|---------------------|------------------|
Db :0-----*--------------|8-----8-8-10*12-10-8-|7-----5-5-7*8-7-5-|
Ab :0-----8-8-10*12-10-8-|8-----*--------------|7-----*-----------|
Db :0-----*--------------|8-----*--------------|7-----*-----------|

Eb :-----------------------------------|---------------------|
Bb :-----------------------------------|---------------------|
Gb :-----------------------------------|---------------------|
Db :*-------5-5-5-5-7-7-7-7-10-10-10-10|0-----*--------------|
Ab :7-7-7-7-*--------------------------|0-----8-8-10*12-10-8-|
Db :-----------------------------------|0-----*--------------|

Eb :---------------------|------------------|
Bb :---------------------|------------------|
Gb :---------------------|------------------|
Db :8-----8-8-10*12-10-8-|7-----5-5-7*8-7-5-|
Ab :8-----*--------------|7-----*-----------|
Db :8-----*--------------|7-----*-----------|

Eb :-----------------------------------|-----------------|----------------|
Bb :-----------------------------------|-----------------|----------------|
Gb :-----------------------------------|-----------------|----------------|
Db :*-------5-5-5-5-7-7-7-7-10-10-10-10|0-*---10-*---8-7-|8-*-------------|
Ab :7-7-7-7-*--------------------------|0-*---10-*---8-7-|8-*---6-----3---|
Db :-----------------------------------|0-*---10-*---8-7-|8-*---8-----5---|

Eb :----------------------|----------------------|--------------------|
Bb :----------------------|----------------------|--------------------|
Gb :----------------------|----------------------|--------------------|
Db :----------------------|--------8*------10-12-|*-------5*------7-8-|
Ab :*-------8*------10-12-|*---------------------|0*0-0-0*--0-0-0*----|
Db :0*0-0-0*--0-0-0*------|8*8-8-8*--8-8-8*------|--------------------|

Eb :-----------------------------------|----------------------|
Bb :-----------------------------------|----------------------|
Gb :-----------------------------------|----------------------|
Db :*-------5-5-5-5-7-7-7-7-10-10-10-10|*---------------------|
Ab :7-7-7-7-*--------------------------|--------8*------10-12-|
Db :-----------------------------------|0*0-0-0*--0-0-0*------|

Eb :----------------------|--------------------|
Bb :----------------------|--------------------|
Gb :----------------------|--------------------|
Db :--------8*------10-12-|*-------5*------7-8-|
Ab :*---------------------|0*0-0-0*--0-0-0*----|
Db :8*8-8-8*--8-8-8*------|--------------------|

Eb :-----------------------------------|----------------|----------------|
Bb :-----------------------------------|----------------|----------------|
Gb :-----------------------------------|----------------|----------------|
Db :*-------5-5-5-5-7-7-7-7-10-10-10-10|5-4-1-0-1-0-*-0-|*---------------|
Ab :7-7-7-7-*--------------------------|------------4-*-|4-1-0-1-4-5-4-1-|
Db :-----------------------------------|----------------|----------------|

Eb :----------------|----------------|----------------|----------------|
Bb :----------------|----------------|----------------|----------------|
Gb :----------------|----------------|----------------|----------------|
Db :5-4-1-0-1-0-*-0-|*-----------4---|5-4-1-0-1-0-*-0-|*---------------|
Ab :*-----------4-*-|4-1-0-1-4-5-*---|------------4-*-|4-1-0-1-4-5-4-1-|
Db :----------------|----------------|----------------|----------------|

Eb :----------------|----------------|----------------|
Bb :----------------|----------------|----------------|
Gb :----------------|----------------|----------------|
Db :5-4-1-0-1-0-*-0-|*-----------4---|7-*---5-7-*-----|
Ab :*-----------4-*-|4-1-0-1-4-5-*---|5-*---3-5-*-----|
Db :----------------|----------------|----------------|

Eb :-------------------------------|----------------|
Bb :-------------------------------|----------------|
Gb :-------------------------------|----------------|
Db :-------------------------------|7-*---5-7-*-----|
Ab :-------------------------------|5-*---3-5-*-----|
Db :5-5-5-5-3-3-3-3-7-7-7-7-3-3-3-3|*---------------|

Eb :------------------------|-------------------------|
Bb :------------------------|-------------------------|
Gb :------------------------|-------------------------|
Db :------------------------|7-*-------5-7-*----------|
Ab :3-3-3-3-3---5-5-5-5-5---|5-5-5-5-5-3-5-5-5-5-5-5-5|
Db :3-3-3-3-3---5-5-5-5-5---|-------------------------|

Eb :-----------------------|-----------------------------|
Bb :-----------------------|-----------------------------|
Gb :-----------------------|-----------------------------|
Db :8-*---7-5-7-*----------|-----------------------------|
Ab :5-5-5-5-5-5-5-5-5-5-5-5|6-*--------------------------|
Db :-----------------------|8-8-8-8-8-8-8-8-8-8-8-8-8-8-8|

Eb :---------------------------|-------------------------|
Bb :---------------------------|-------------------------|
Gb :---------------------------|-------------------------|
Db :---------------------------|7-*-------5-7-*----------|
Ab :3-*-----------5-*----------|5-5-5-5-5-3-5-5-5-5-5-5-5|
Db :5-5-5-5-5-5-5-7-7-7-7-7-7-7|-------------------------|

Eb :-----------------------|-----------------------------|
Bb :-----------------------|-----------------------------|
Gb :-----------------------|-----------------------------|
Db :8-*---7-5-7-*----------|-----------------------------|
Ab :5-5-5-5-5-5-5-5-5-5-5-5|6-*--------------------------|
Db :-----------------------|8-8-8-8-8-8-8-8-8-8-8-8-8-8-8|

Eb :---------------------------|-------------------------|
Bb :---------------------------|-------------------------|
Gb :---------------------------|-------------------------|
Db :---------------------------|7-*-------5-7-*----------|
Ab :3-*-----------5-*----------|5-5-5-5-5-3-5-5-5-5-5-5-5|
Db :5-5-5-5-5-5-5-7-7-7-7-7-7-7|-------------------------|

Eb :-----------------------|-----------------------------|
Bb :-----------------------|-----------------------------|
Gb :-----------------------|-----------------------------|
Db :8-*---7-5-7-*----------|-----------------------------|
Ab :5-5-5-5-5-5-5-5-5-5-5-5|6-*--------------------------|
Db :-----------------------|8-8-8-8-8-8-8-8-8-8-8-8-8-8-8|

Eb :---------------------------|-------------------------|
Bb :---------------------------|-------------------------|
Gb :---------------------------|-------------------------|
Db :---------------------------|7-*-------5-7-*----------|
Ab :3-*-----------5-*----------|5-5-5-5-5-3-5-5-5-5-5-5-5|
Db :5-5-5-5-5-5-5-7-7-7-7-7-7-7|-------------------------|

Eb :-----------------------|-----------------------------|
Bb :-----------------------|-----------------------------|
Gb :-----------------------|-----------------------------|
Db :8-*---7-5-7-*----------|-----------------------------|
Ab :5-5-5-5-5-5-5-5-5-5-5-5|6-*--------------------------|
Db :-----------------------|8-8-8-8-8-8-8-8-8-8-8-8-8-8-8|

Eb :---------------------------|----------------------|----------------|
Bb :---------------------------|----------------------|----------------|
Gb :---------------------------|----------------------|----------------|
Db :---------------------------|12-10-8--*------------|----------------|
Ab :3-*-----------5-*----------|--------12-10-8--*----|----------------|
Db :5-5-5-5-5-5-5-7-7-7-7-7-7-7|----------------10-12-|--0-0*0*0*0*0*0*|

Eb :--------------------|----------------|---------------------|
Bb :--------------------|----------------|---------------------|
Gb :--------------------|----------------|10-9-7---------------|
Db :--------------------|----------------|-------10-8-7-10-/12-|
Ab :13-*-12-*-10-*-8-10-|--8-*-----------|---------------------|
Db :---0*---0*---0*-----|----0*0*0*0*0*0*|---------------------|

Eb :-----------------|--------------------|----------------|
Bb :-----------------|--------------------|----------------|
Gb :-----------------|--------------------|----------------|
Db :--12-*-----------|--------------------|----------------|
Ab :-----------------|13-*-12-*-10-*-8-10-|--8-*-----------|
Db :-----0*0*0*0*0*0*|---0*---0*---0*-----|----0*0*0*0*0*0*|

Eb :---------------------|----------------------|--------------------|
Bb :---------------------|----------------------|--------------------|
Gb :10-9-7---------------|----------------------|--------------------|
Db :-------10-8-7-10/-12-|--12-*----------------|--------------------|
Ab :---------------------|----------------------|13-*-12-*-10-*-8-10-|
Db :---------------------|-----0*0-0-0*0-0-0*0-0|---0*---0*---0*-----|

Eb :---------------------|---------------------------------------------|
Bb :---------------------|---------------------------------------------|
Gb :---------------------|---------------------------------------------|
Db :---------------------|---------------------------------------------|
Ab :--8-*----------------|---------------------------------------------|
Db :----0*0-0-0*0-0-0*0-0|13-13-13-13-13-13-13-13-12-12-12-12-10-10-12-|

Eb :-----------------------|--------------------|---------------------|
Bb :-----------------------|--------------------|---------------------|
Gb :-----------------------|--------------------|---------------------|
Db :-----------------------|--------------------|---------------------|
Ab :-----------------------|13-*-12-*-10-*-8-10-|--8-*----------------|
Db :--0-0-0*0-0-0*0-0-0*0-0|---0*---0*---0*-----|----0*0-0-0*0-0-0*0-0|

Eb :-----------------------------------------|------------------------|
Bb :-----------------------------------------|------------------------|
Gb :-----------------------------------------|15-*-----14-12-*-----12-|
Db :-----------------------------------------|---0-0-0*------0-0-0*---|
Ab :-----------------------------------------|------------------------|
Db :13-13-13-13-13-13-13-13-12-12-12-12-10---|------------------------|

Eb :------------------------|------------------------|
Bb :------------------------|------------------------|
Gb :14-*-----14-12-10-12-14-|15-*-----14-12-*-----12-|
Db :---0-0-0*---------------|---0-0-0*------0-0-0*---|
Ab :------------------------|------------------------|
Db :------------------------|------------------------|

Eb :-----------------------|------------------------|
Bb :-----------------------|------------------------|
Gb :14-*-----12-10-9-10-12-|15-*-----14-12-*-----12-|
Db :---0-0-0*--------------|---0-0-0*------0-0-0*---|
Ab :-----------------------|------------------------|
Db :-----------------------|------------------------|

Eb :------------------------|------------------------|
Bb :------------------------|------------------------|
Gb :14-*-----14-12-10-12-14-|15-*-----14-12-*-----12-|
Db :---0-0-0*---------------|---0-0-0*------0-0-0*---|
Ab :------------------------|------------------------|
Db :------------------------|------------------------|

Eb :-----------------------|----------------|------------------------|
Bb :-----------------------|----------------|------------------------|
Gb :14-*-----12-10-9-10-12-|*---------------|------------------------|
Db :---0-0-0*--------------|----------------|------------------------|
Ab :-----------------------|----------------|13-*-----12-10-*-----10-|
Db :-----------------------|----------------|---0-0-0*------0-0-0*---|

Eb :-----------------------|------------------------|---------------------|
Bb :-----------------------|------------------------|---------------------|
Gb :-----------------------|------------------------|---------------------|
Db :-----------------------|------------------------|---------------------|
Ab :12-*-----12-10-8-10-12-|13-*-----12-10-*-----10-|12-*-----10-8-7-8-10-|
Db :---0-0-0*--------------|---0-0-0*------0-0-0*---|---0-0-0*------------|

Eb :------------------------|-----------------------|
Bb :------------------------|-----------------------|
Gb :------------------------|-----------------------|
Db :------------------------|-----------------------|
Ab :13-*-----12-10-*-----10-|12-*-----12-10-8-10-12-|
Db :---0-0-0*------0-0-0*---|---0-0-0*--------------|

Eb :------------------------|---------------------|----------------|
Bb :------------------------|---------------------|----------------|
Gb :------------------------|---------------------|----------------|
Db :------------------------|---------------------|----------------|
Ab :13-*-----12-10-*-----10-|12-*-----10-8-7-8-10-|5-7*8*7*5*4*5*7*|
Db :---0-0-0*------0-0-0*---|---0-0-0*------------|5-7*8*7*5*4*5*7*|

Eb :-------------------|----------------|-------------------|
Bb :-------------------|----------------|-------------------|
Gb :-------------------|----------------|-------------------|
Db :-------------------|----------------|-------------------|
Ab :8*7*5*11*8*7*12*11*|5*7*8*7*5*4*5*7*|8*7*5*11*8*7*12*11*|
Db :8*7*5*11*8*7*12*11*|5*7*8*7*5*4*5*7*|8*7*5*11*8*7*12*11*|

Eb :----------------|-------------------|----------------|
Bb :----------------|-------------------|----------------|
Gb :----------------|-------------------|----------------|
Db :----------------|-------------------|----------------|
Ab :5-7*8*7*5*4*5*7*|8*7*5*11*8*7*12*11*|5*7*8*7*5*4*5*7*|
Db :5-7*8*7*5*4*5*7*|8*7*5*11*8*7*12*11*|5*7*8*7*5*4*5*7*|

Eb :-------------------|-------------------------------|
Bb :-------------------|-------------------------------|
Gb :-------------------|-------------------------------|
Db :-------------------|-------------------------------|
Ab :8*7*5*11*8*7*12*11*|-------------------------------|
Db :8*7*5*11*8*7*12*11*|0-0-0-0-0-0-0-0-0-0-0-0-0-0-0-0|

Eb :-------------------------------------------|
Bb :-------------------------------------------|
Gb :-------------------------------------------|
Db :--------------------------------11-11-12-12|
Ab :----------------8-8-11-11-12-12------------|
Db :8-8-11-11-12-12----------------------------|

Eb :-------------------------------|
Bb :-------------------------------|
Gb :-------------------------------|
Db :-------------------------------|
Ab :-------------------------------|
Db :1-1-1-1-1-1-1-1-1-1-1-1-1-1-1-1|

Eb :-------------------------------------------|
Bb :-------------------------------------------|
Gb :-------------------------------------------|
Db :--------------------------------11-11-12-12|
Ab :----------------8-8-11-11-12-12------------|
Db :8-8-11-11-12-12----------------------------|

Eb :-------------------------------|
Bb :-------------------------------|
Gb :-------------------------------|
Db :-------------------------------|
Ab :-------------------------------|
Db :4-4-4-4-4-4-4-4-4-4-4-4-4-4-4-4|

Eb :-------------------------------------------|
Bb :-------------------------------------------|
Gb :-------------------------------------------|
Db :--------------------------------11-11-12-12|
Ab :----------------8-8-11-11-12-12------------|
Db :8-8-11-11-12-12----------------------------|

Eb :-------------------------------|
Bb :-------------------------------|
Gb :-------------------------------|
Db :-------------------------------|
Ab :-------------------------------|
Db :1-1-1-1-1-1-1-1-1-1-1-1-1-1-1-1|

Eb :-------------------------------------------|
Bb :-------------------------------------------|
Gb :-------------------------------------------|
Db :--------------------------------11-11-12-12|
Ab :----------------8-8-11-11-12-12------------|
Db :8-8-11-11-12-12----------------------------|

Eb :-------------------------|----------------------------|
Bb :-------------------------|----------------------------|
Gb :------------8~-----------|----------------------------|
Db :0-----------8~-----0-----|4-5-4---4-------------------|
Ab :0-----0*0*0*7~-----0-----|------6---6-5-5-6-5---5-----|
Db :0-----0*0*0*-------0-----|--------------------9---9-8-|

Eb :-----------------------------------------------|
Bb :-----------------------------------------------|
Gb :------------------------------------8-8-8-8-8-8|
Db :------------------------8-8-8-8-8-8------------|
Ab :------------7-7-7-7-7-7------------------------|
Db :0-0-0-0-0-0------------------------------------|

Eb :---------------------------|------------------|
Bb :10-8-6---------------------|------------------|
Gb :-------9-7-6-6-7-6---6-----|------------------|
Db :-------------------8---8-7-|6~-------7~-------|
Ab :---------------------------|------------------|
Db :---------------------------|------------------|

Eb :-------------------------|----------------------------|
Bb :-------------------------|----------------------------|
Gb :------------8~-----------|----------------------------|
Db :0-----------8~-----0-----|4-5-4---4-------------------|
Ab :0-----0*0*0*7~-----0-----|------6---6-5-5-6-5---5-----|
Db :0-----0*0*0*-------0-----|--------------------9---9-8-|

Eb :-----------------------------------------------|
Bb :-----------------------------------------------|
Gb :------------------------------------8-8-8-8-8-8|
Db :------------------------8-8-8-8-8-8------------|
Ab :------------7-7-7-7-7-7------------------------|
Db :0-0-0-0-0-0------------------------------------|

Eb :---------------------------|------------------|------------------------|
Bb :10-8-6---------------------|------------------|------------------------|
Gb :-------9-7-6-6-7-6---6-----|------------------|------------------------|
Db :-------------------8---8-7-|6~-------7~-------|0-----------------------|
Ab :---------------------------|------------------|0-----0*0*0*0*----0*0*0*|
Db :---------------------------|------------------|0-----0*0*0*0*----0*0*0*|

Eb :------------------------|------------------------|
Bb :------------------------|------------------------|
Gb :------------------------|------------------------|
Db :------------------------|0-----------------------|
Ab :8-----------5-----------|0-----0*0*0*0*----0*0*0*|
Db :8-----------5-----------|0-----0*0*0*0*----0*0*0*|

Eb :--------------------------|------------------------|
Bb :--------------------------|------------------------|
Gb :--------------------------|------------------------|
Db :--------------------------|0-----------------------|
Ab :10------------8-----6-----|0-----0*0*0*0*----0*0*0*|
Db :12-----------10-----8-----|0-----0*0*0*0*----0*0*0*|

Eb :------------------------|------------------------|
Bb :------------------------|------------------------|
Gb :------------------------|------------------------|
Db :------------------------|0-----------------------|
Ab :8-----------5-----------|0-----0*0*0*0*----0*0*0*|
Db :8-----------5-----------|0-----0*0*0*0*----0*0*0*|

Eb :--------------------------|------------------------|
Bb :--------------------------|------------------------|
Gb :--------------------------|------------------------|
Db :--------------------------|0-----------------------|
Ab :10------------8-----6-----|0-----------------------|
Db :12-----------10-----8-----|0-----------------------|

Eb :------------------------|-------------------------|
Bb :------------------------|-------------------------|
Gb :------------------------|-------------------------|
Db :------------------------|10-----------------------|
Ab :------------------------|10-----------------------|
Db :------------------------|10-----------------------|

Eb :------------------------|------------------------|
Bb :------------------------|------------------------|
Gb :------------------------|------------------------|
Db :------------------------|5-----------------------|
Ab :------------------------|5-----------------------|
Db :------------------------|5-----------------------|

Eb :------------------------|------------------------|
Bb :------------------------|------------------------|
Gb :------------------------|------------------------|
Db :------------------------|3-----*-----3-----*-----|
Ab :------------------------|3-----3*3*3*3-----3*3*3*|
Db :------------------------|3-----3*3*3*3-----3*3*3*|

Eb :------------------------|---------------------------------------------|
Bb :------------------------|---------------------------------------------|
Gb :------------------------|---------------------------------------------|
Db :------------------------|---------------------------------------------|
Ab :7-*---7-*---7-*---7-*---|------------12--*-------13--*-------15-13-12-|
Db :7-*---7-*---7-*---7-*---|12*12-12-12*---12-12-12*---12-12-12*---------|

Eb :---------------------------------------------|
Bb :---------------------------------------------|
Gb :---------------------------------------------|
Db :---------------------------------------------|
Ab :-*----------12--*-------13--*-------15-13-12-|
Db :12*12-12-12*---12-12-12*---12-12-12*---------|

Eb :---------------------------------------------|
Bb :---------------------------------------------|
Gb :---------------------------------------------|
Db :---------------------------------------------|
Ab :-*----------10--*-------12--*-------13-12-10-|
Db :10*10-10-10*---10-10-10*---10-10-10*---------|

Eb :---------------------------------------------|
Bb :---------------------------------------------|
Gb :---------------------------------------------|
Db :---------------------------------------------|
Ab :-*----------10--*-------12--*-------13-12-10-|
Db :10*10-10-10*---10-10-10*---10-10-10*---------|

Eb :------------------------------|------------------------------|
Bb :------------------------------|------------------------------|
Gb :------------------------------|------------------------------|
Db :--------3-*-----5-*-----7-5-3-|--------3-*-----5-*-----7-5-3-|
Ab :1*1-1-1*--1-1-1*--1-1-1*------|1*1-1-1*--1-1-1*--1-1-1*------|
Db :------------------------------|------------------------------|

Eb :------------------------------|------------------------------|
Bb :------------------------------|------------------------------|
Gb :------------------------------|------------------------------|
Db :--------2-*-----3-*-----5-3-2-|--------5-*-----7-*-----8-7-5-|
Ab :0*0-0-0*--0-0-0*--0-0-0*------|4*4-4-4*--4-4-4*--4-4-4*------|
Db :------------------------------|------------------------------|

Eb :------------------------------|------------------------------|
Bb :------------------------------|------------------------------|
Gb :7-9-10-9-7-9-12-10-9-14-12-10-|7-9-10-9-7-9-12-10-9-14-12-10-|
Db :------------------------------|------------------------------|
Ab :------------------------------|------------------------------|
Db :------------------------------|------------------------------|

Eb :---------------------------|---------------------------|
Bb :---------------------------|---------------------------|
Gb :5-7-9-7-5-7-10-9-7-12-10-9-|5-7-9-7-5-7-10-9-7-12-10-9-|
Db :---------------------------|---------------------------|
Ab :---------------------------|---------------------------|
Db :---------------------------|---------------------------|

Eb :-------------------------|-------------------------|
Bb :-------------------------|-------------------------|
Gb :3-5-7-5-3-5-9-7-5-10-9-7-|3-5-7-5-3-5-9-7-5-10-9-7-|
Db :-------------------------|-------------------------|
Ab :-------------------------|-------------------------|
Db :-------------------------|-------------------------|

Eb :------------3-5-6-/10-8-6-|-------------------------|
Bb :------2-3-5---------------|10-8-6-------------------|
Gb :2-3-5---------------------|-------9-7-5-------------|
Db :--------------------------|-------------7-5-3-5-7-5-|
Ab :--------------------------|-------------------------|
Db :--------------------------|-------------------------|

Eb :------------------------------|------------------------------|
Bb :------------------------------|------------------------------|
Gb :7-9-10-9-7-9-12-10-9-14-12-10-|7-9-10-9-7-9-12-10-9-14-12-10-|
Db :------------------------------|------------------------------|
Ab :------------------------------|------------------------------|
Db :------------------------------|------------------------------|

Eb :---------------------------|---------------------------|
Bb :---------------------------|---------------------------|
Gb :5-7-9-7-5-7-10-9-7-12-10-9-|5-7-9-7-5-7-10-9-7-12-10-9-|
Db :---------------------------|---------------------------|
Ab :---------------------------|---------------------------|
Db :---------------------------|---------------------------|

Eb :-------------------------|-------------------------|
Bb :-------------------------|-------------------------|
Gb :3-5-7-5-3-5-9-7-5-10-9-7-|3-5-7-5-3-5-9-7-5-10-9-7-|
Db :-------------------------|-------------------------|
Ab :-------------------------|-------------------------|
Db :-------------------------|-------------------------|

Eb :------------3-5-6-/10-8-6-|-------------------------|
Bb :------2-3-5---------------|10-8-6-------------------|
Gb :2-3-5---------------------|-------9-7-5-------------|
Db :--------------------------|-------------7-5-3-5-7-5-|
Ab :--------------------------|-------------------------|
Db :--------------------------|-------------------------|

Eb :-----------------------------------------------------------|
Bb :-----------------------------------------------------------|
Gb :7-7-7-7-7-7-9-9-9-9-9-9-10-10-10-10-10-10-12-12-12-12-12-12|
Db :-----------------------------------------------------------|
Ab :-----------------------------------------------------------|
Db :-----------------------------------------------------------|

Eb :---------------------------------------|
Bb :12-b14-12-10-11-10--*---------10~------|
Gb :-------------------12-9-10-12----------|
Db :---------------------------------------|
Ab :---------------------------------------|
Db :---------------------------------------|

Eb :11-10-8-----------------------------------------------10-11-13|
Bb :--------11-10-8------------------------------10-11-13---------|
Gb :----------------10-9-7---------------9-10-12------------------|
Db :-----------------------10-8-7-7-8-10--------------------------|
Ab :--------------------------------------------------------------|
Db :--------------------------------------------------------------|

Eb :12-13-b15--(17)-15-13-13-(15)---b13---|
Bb :--------------------------------------|
Gb :--------------------------------------|
Db :--------------------------------------|
Ab :--------------------------------------|
Db :--------------------------------------|

Eb :9-h10-h12-/13-\12-p10-p9--*-9--*----------------------------------------
Bb :-------------------------11---11-10-h11-p10-p8-\7-h8-h10-p8-p7---7------
Gb :---------------------------------------------------------------8---8-p7-
Db :------------------------------------------------------------------------
Ab :------------------------------------------------------------------------
Db :------------------------------------------------------------------------

Eb :--|
Bb :--|
Gb :h8|
Db :--|
Ab :--|
Db :--|

Eb :-----------------------------------------------------------------------
Bb :-----------------------------------------------------------------------
Gb :p7-h8-p7-h8-p7-h8-t10-p8-t10-p8-t10-p8-t12-p8-t12-t8-t12-p8-t10-p8-t10-
Db :-----------------------------------------------------------------------
Ab :-----------------------------------------------------------------------
Db :-----------------------------------------------------------------------

Eb :---------|
Bb :---------|
Gb :p8-t10-p8|
Db :---------|
Ab :---------|
Db :---------|

Eb :-----------------------------------------------------------------------|
Bb :-----------------------------------------------------------------------|
Gb :\7-t8-p7-t8-p7-t8-\5-t7-p5-t7-p5-t7-\3-t5-p3-t5-p3-t5-\2-t3-p2-t3-p2-t3|
Db :-----------------------------------------------------------------------|
Ab :-----------------------------------------------------------------------|
Db :-----------------------------------------------------------------------|

Eb :--------------17-----20-----|b20--(22)--------(22)-----------|
Bb :----------------------------|--------------------------------|
Gb :2-----/14-------------------|--------------------------------|
Db :----------------------------|--------------------------------|
Ab :----------------------------|--------------------------------|
Db :----------------------------|--------------------------------|

Eb :17-18-20-18-h20-p18-p17-18-17-------------|
Bb :------------------------------20-18-20-18-|
Gb :------------------------------------------|
Db :------------------------------------------|
Ab :------------------------------------------|
Db :------------------------------------------|

Eb :---------17----------------18-------|
Bb :15-17-18----18-17-15-17-18----18-17-|
Gb :------------------------------------|
Db :------------------------------------|
Ab :------------------------------------|
Db :------------------------------------|

Eb :20-20-20-20-18-18-18-18-17-17-17-17-17-t18-p17-t18-p17-t18-p17-t18-p17-
Bb :-----------------------------------------------------------------------
Gb :-----------------------------------------------------------------------
Db :-----------------------------------------------------------------------
Ab :-----------------------------------------------------------------------
Db :-----------------------------------------------------------------------

Eb :t18-p17-|
Bb :--------|
Gb :--------|
Db :--------|
Ab :--------|
Db :--------|

Eb :------------------------------------------------------------------------
Bb :t20-p17-h18-p17-p15-t20-t20-p17-h18-p17-p15-t22-t22-p17-h18-p17-p15-t22-
Gb :------------------------------------------------------------------------
Db :------------------------------------------------------------------------
Ab :------------------------------------------------------------------------
Db :------------------------------------------------------------------------

Eb :-----------------------|
Bb :t22-p17-h18-p17-p15-t20|
Gb :-----------------------|
Db :-----------------------|
Ab :-----------------------|
Db :-----------------------|

Eb :------------------------------------------------------------------------
Bb :t20-p17-h18-p17-p15-t20-t20-p17-h18-p17-p15-t22-t22-p17-h18-p17-p15-t22-
Gb :------------------------------------------------------------------------
Db :------------------------------------------------------------------------
Ab :------------------------------------------------------------------------
Db :------------------------------------------------------------------------

Eb :-----------------------|
Bb :t22-p17-h18-p17-p15-t20|
Gb :-----------------------|
Db :-----------------------|
Ab :-----------------------|
Db :-----------------------|

Eb :---------------------------------------------------------------15-17-18|
Bb :---------------------------------------------15-17-18-15-17-18---------|
Gb :---------------------------15-17-19-15-17-19---------------------------|
Db :---------15-17-19-15-17-19---------------------------------------------|
Ab :16-17-19---------------------------------------------------------------|
Db :-----------------------------------------------------------------------|

Eb :h17-p18-h17----15---------------20----20-|b20-(22)-~---------------|
Bb :------------18----18-17-15---18----18----|-------------------------|
Gb :-----------------------------------------|-------------------------|
Db :-----------------------------------------|-------------------------|
Ab :-----------------------------------------|-------------------0*0*0*|
Db :-----------------------------------------|-------------------0*0*0*|

Eb :------------------------|------------------------|
Bb :------------------------|------------------------|
Gb :------------------------|------------------------|
Db :------------------------|0-----*-----------------|
Ab :8-----------5-----------|0-----0*0*0*0*----0*0*0*|
Db :8-----------5-----------|0-----0*0*0*0*----0*0*0*|

Eb :--------------------------|------------------------|
Bb :--------------------------|------------------------|
Gb :--------------------------|------------------------|
Db :--------------------------|0-----*-----------------|
Ab :10------------8-----6-----|0-----0-0-0-0--*--0--*--|
Db :12-----------10-----8-----|0-----0-0-0-0--*--0--*--|

Eb :--------------------------|----------------------------|
Bb :--------------------------|----------------------------|
Gb :--------------------------|----------------------------|
Db :--------------------------|4-5-4---4-------------------|
Ab :0-----0*0*0*1-/2-\1-0-----|------6---6-5-5-6-5---5-----|
Db :0-----0*0*0*1-/2-\1-0-----|--------------------9---9-8-|

Eb :-----------------------------------------------|
Bb :-----------------------------------------------|
Gb :-----------------------------------------------|
Db :-----------------------------------------------|
Ab :------------------------------------6-6-6-6-6-6|
Db :0-0-0-0-0-0-2-2-2-2-2-2-8-8-8-8-8-8------------|

Eb :--------------------------|
Bb :--------------------------|
Gb :--------------------------|
Db :7-5-3---------------------|
Ab :------7-5-4-4-5-4---4-----|
Db :------------------8---8-7-|

Eb :-----------------------------------------------|
Bb :-----------------------------------------------|
Gb :-----------------------------------------------|
Db :-----------------------------------------------|
Ab :-----------------------------------------------|
Db :7-7-7-7-7-7-6-6-6-6-6-6-5-5-5-5-5-5-3-3-3-3-3-3|

Eb :--------------------------|----------------------------|
Bb :--------------------------|----------------------------|
Gb :--------------------------|----------------------------|
Db :--------------------------|4-5-4---4-------------------|
Ab :0-----0*0*0*1-/2-\1-0-----|------6---6-5-5-6-5---5-----|
Db :0-----0*0*0*1-/2-\1-0-----|--------------------9---9-8-|

Eb :-----------------------------------------------|
Bb :-----------------------------------------------|
Gb :-----------------------------------------------|
Db :-----------------------------------------------|
Ab :------------------------------------6-6-6-6-6-6|
Db :0-0-0-0-0-0-2-2-2-2-2-2-8-8-8-8-8-8------------|

Eb :--------------------------|
Bb :--------------------------|
Gb :--------------------------|
Db :7-5-3---------------------|
Ab :------7-5-4-4-5-4---4-----|
Db :------------------8---8-7-|

Eb :-----------------------------------------------|
Bb :-----------------------------------------------|
Gb :-----------------------------------------------|
Db :-----------------------------------------------|
Ab :-----------------------------------------------|
Db :7-7-7-7-7-7-6-6-6-6-6-6-5-5-5-5-5-5-3-3-3-3-3-3|

Eb :-------------------------------------------------------------------|
Bb :-------------------------------------------------------------------|
Gb :15-15-12-12-11-11-15-15-12-12-11-11-12-12-11-11-8-8-12-12-11-11-8-8|
Db :-------------------------------------------------------------------|
Ab :-------------------------------------------------------------------|
Db :-------------------------------------------------------------------|

Eb :-----------------------------------------------------------|
Bb :-----------------------------------------------------------|
Gb :11-11-8-8-7-7-11-11-8-8-7-7--------------------------------|
Db :-----------------------------------------------------------|
Ab :-----------------------------------------------------------|
Db :----------------------------12-12-11-11-8-8-12-12-11-11-8-8|

Eb :-------------------------|
Bb :-------------------------|
Gb :-------------------------|
Db :-------------------------|
Ab :12-*---------------------|
Db :12-*---------------------|
comments
print report bad tab
8 comments total. Showing first comments.
0 reply
rhampster wrote on March 4 2009, 04:19 pm

how could this be anything other than perfect

0 reply
Knightfall192 wrote on March 5 2009, 08:40 pm

Srsly, how could it?
This is awesome and yeah, 'nuf said.

0 reply
DuffMcKagan7179 wrote on March 14 2009, 06:23 pm

At the risk of sounding like an idiot, what do all those asterisks mean?

I want to post or [tab]
guest
You may want to rate the tab now too:
select rating
Please do not post tabs as comments. Select "correction" instead!