Oops, an error
Loading. Please wait.

The Allure Of The Earth Chords

ver1
ver1

Whole song

Interactive

More versions @911Tabs.com
2,481 views 12 this week
no commentswrite comment
1 2 3 4 5
excellent!
x 1
Autoscroll
+/-
esc
set tempo
stop
Contributor
Difficulty
intermediate
Hey! There's an official Ultimate Guitar app which is ideal
for learning songs when you're away from computer. Get the app
WARNING: You are trying to view
                                    content from Ultimate-Guitar.com
                                    in an unauthorized application,
                                    which is prohibited.

                                    Please use an official Ultimate
                                    Guitar Tabs application for iPhone,
                                    iPad or Android to access legitimate
                                    chords, guitar, bass, and drum tabs
                                    from Ultimate-Guitar.com database.

                                    Type "ultimate guitar tabs" in Apple
                                    App Store's or Android Market's
                                    search to find the application.
WOODS OF YPRES : ALLURE OF THE EARTH
----------------------------------------

This is whole song.  About a month ago i found this band on youtube and immedeately fall 
in love to it.I couldn´t find tab for this song so i decided to make it. Its 1 and half 
step down tuning and Chord names are like in standard so dont be confused.


Some chords used and named by internet programe(:D)


Am      Asus4   C       CM7     Em      
G6/E    D       D5      Bm#5
002210  002230  032010  032000  022000  022003  X00232  X00235  7 10 9 7 8 7

F#m#5   G        Em(in fefrain fits better)
254232  320033   779987




Intro:
1:---------------------------------------------------------------------|
2:-1-------1-------3-------3-------1-------1-------0-------0-----------|
3:---2---2---2---2---2---2---2---2---0---0---0---0---0---0---0---2-----|
4:-----2-------2-------2-------2-------2-------2-------2-------2-------|
6:-0-------0-------0-------0-------3-------3-------3-------3-----------|
6:------------------------------------------------------=play this 2X=-|



 Am           Asus4
The sun taunts you
C                    CM7
In everything you do
Am                                            Asus4
Like a substance that works for everyone else
C             CM7
But has no effect on you



Am              Asus4
It shines for places
C                 CM7
You ll never go
Am                Asus4
It shines for people
C                  CM7
You ll never know


Em     G6/E    D                      D5
You believe that in your entire life
Em             G6/E
You will never feel
D            D5
What it s like



Bm#5   F#m#5     Em
So you   turn        away
Bm#5   F#m#5      Em
Dream about an escape
Bm#5   F#m#5                 Em
A hole in the earth deep and cool
Bm#5      F#m#5             Em
That you could climb down into

.................................
There is a possibility to play refrain with G D and G6/E exept original Bm#5 #m#5 and Em chords.
Its good for you when you cant play guitar very well and sound is almost the same.


In other side if you thing you are very good (:D) there is a possibility play   refrain like this:

h-hammer on    p-pull off

1:-7-------7-------5-------5------------------------------------------|
2:---8---8---8---8---7---7---7---7-7h8-----7h8-10p8-7h8---7h8---10p8--|
3:-----7-------7-------7-------7-------9----------------9-----7-------|
4:---------------------------------------9----------------------------|
5:-10------10------5-------5-------7-------7--------7---------7-------|
6:--------------------------------------------------------------------|

1:-7-------7-------5-------5------------------------------------------|
2:---8---8---8---8---7---7---7---7-7h8-----7h8-10p8-7h8---7h8---10p8--|
3:-----7-------7-------7-------7-------9----------------9-----7-------|
4:---------------------------------------9----------------------------|
5:-10------10------5-------5-------7-------7--------7---------7-------|
6:--------------------------------------------------------------------|

1:-------------------10-------10-------12-------12-------10-----10-------|
2:-12-------12----------7---7----7---7----8---8----8---8----8--7---8-----|
3:---12--12---12--12------7--------7--------7--------7-------7-------7---|
4:-----12-------12-----------------------------------------------------9-|
5:-10-------10-------5--------5--------7--------7--------7-------7-------|
6:-----------------------------------------------------------------------|

1:-------------------10-------10-------12-------12-------10-----10-------|
2:-12-------12----------7---7----7---7----8---8----8---8----8--7---8-----|
3:---12--12---12--12------7--------7--------7--------7-------7-------7---|
4:-----12-------12-----------------------------------------------------9-|
5:-10-------10-------5--------5--------7--------7--------7-------7-------|
6:-----------------------------------------------------------------------|

this part sound amazing :D
.........................................................................

Am                Asus4
I despise the rising
C             CM7
Of the upsetting sun
Am            Asus4
I ll hide away
C             CM7
Until the day is done


Am              Asus4
I ll exclude myself
C                        CM7
A few months of every year
Am               Asus4
To avoid the drama
C                   CM7
Of the sun, sweat and tears

Em                 G6/E    D                      D5
You could fall away And no one would know
Em                         G6/E
Release the tension of holding on
D                      D5
Feel the high of letting go




Bm#5   F#m#5     Em
So you turn away
Bm#5   F#m#5     Em
Elude the pressures of the sun
Bm#5   F#m#5     Em
Go find your place in the shade
Bm#5   F#m#5     Em
Far away from everyone

In next part you only changes C Am and Em chords....its your choice if you want to play 
it like power chords or normal chords
(for electric guitar fits better power chords).



C              Am             Em
It s so easy to get your fill
When the engine turns and pushes in the dirt
It s so easy to be satisfied
When all you want to do is lay down and die

The Allure of the Earth
Those dreams can come true
When you make a deal with the earth
Who says
Here s what I can do for you ?

The Allure of the Earth
When you are through with trying
When you are tired and days are long
Letting go seems so inviting

The Allure of the Earth
The desire to give up
It is the encouragement
When you are discouraged

The Allure of the Earth
When the urges aren t worth fighting
The temptations on the great beyond
Become so exciting



Thats all from me. And please excuse my weeker english because
I´m from Slovakia (Europe) :DD Enjoy the song..................
 tabbed by Deathcore69 2012
comments
We did not receive enough feedback on this tab! Please rate:
print report bad tab
1 2 3 4 5
I want to post or [tab]
guest
You may want to rate the tab now too:
select rating
Please do not post tabs as comments. Select "correction" instead!