Oops, an error
Loading. Please wait.

Pulses In Rhombus Forms Tab

ver1
ver1

Whole song

Interactive

More versions @911Tabs.com
574 views 1 this week
no commentswrite comment
1 2 3 4 5
please rate
add to favorites launch autoscroll
font size
0
reset
Autoscroll
+/-
esc
set tempo
stop
Contributor
Difficulty
Tuning
advanced
B E A D F# B
WARNING: You are trying to view
                                    content from Ultimate-Guitar.com
                                    in an unauthorized application,
                                    which is prohibited.

                                    Please use an official Ultimate
                                    Guitar Tabs application for iPhone,
                                    iPad or Android to access legitimate
                                    chords, guitar, bass, and drum tabs
                                    from Ultimate-Guitar.com database.

                                    Type "ultimate guitar tabs" in Apple
                                    App Store's or Android Market's
                                    search to find the application.
Song : PULSES IN RHOMBUS FORMS
Band : WORMED
ALBUM : Planispherium
Copyright Macabre Mementos 2003

Version 1.0 (July'06)
Transcribed by : Yura Kowalchuk
       contact : yura_kowalchuk@mail.ru
URL: [www.blood-scrapes.nm.ru]

::TABULATURE LEGEND::
 " - tremolo             h - hammer on           
 ~ - vibrato             \ - slide down
 p - pull off            / - slide down
 tr - trill              ^ - pinch harmonics     
 = - sustained note      b - bend string         
 p.m. - palm muting      t - tapping 

Tuning: B-E-A-D-G-B

[Intro]
|---------------|
|---------------|
|---------------|
|---------------|
|-7---7---5--4--|
|-5-0-5-0-3--2--|
          .  .

[Riff 1 (x2)]
|---------------------------------|---------------------------------|
|---------------------------------|---------------------------------|
|---------------------------------|---------------------------------|
|---------------------------------|-----------------6---------------|
|-7---7---4---7---8---8---5---8---|-7---7---4---7---4-2-4-5-4---3---|
|-5-0-5-0-2-0-5-0-6-0-6-0-3-0-6-0-|-5-0-5-0-2-0-5-0---0-2-3-2-0-1-0-|
                                                    . . . . . . . .

[Riff 2]
|-----------------|-----------------|-----------------|-
|-----------------|-----------------|-----------------|-
|-----------------|-----------------|-----------------|-
|-6---------------|-6---------------|-----------------|-
|-4-2-4-5-4---3---|-4-2-4-5-4---3---|-------3-2-1-----|-
|---0-2-3-2-0-1-0-|---0-2-3-2-0-1-0-|-3-2-1-------2-1-|-
  . . . . . . . .   . . . . . . . .   . . . . . . . .

-|-----------------|-----------------|-----------------|-
-|-----------------|-----------------|-----------------|-
-|-----------------|-----------------|-----------------|-
-|-----------------|-----------------|-6---------------|-
-|---------------3-|-2-1-------------|-4-2-4-5-4---3---|-
-|-3-2-1-2-3-2-1---|-----2-1-3-2-1-2-|---0-2-3-2-0-1-0-|-
   . . . . . . . .   . . . . . . . .   . . . . . . . .

-|-----------------|--------------------[x2]-|
-|-----------------|-------------------------|
-|-----------------|-------------------------|
-|-6---------------|-------------------------|
-|-4-2-4-5-4---3---|-3-2-1h4p1h4-3-2-2h5p2h5-|
-|---0-2-3-2-0-1-0-|-1-0---------1-0---------|

[Outro A]
|----------|---------------------------------|-----------|-
|----------|---------------------------------|-----------|-
|----------|---------------------------------|-----------|-
|----------|---------------------------------|-----------|-
|-2--------|-5-4-6-5-2-5-4-3-2-3-6-5-2-5-4-2-|-3-------6-|-
|-0--------|-3-2-4-3-0-3-2-1-0-1-4-3-0-3-2-0-|-1-------4-|-
  .          . . . . . . . . . . . . . . . .   .       .

-|-----------------|-----------------|----------|--------|
-|-----------------|-----------------|----------|--------|
-|-----------------|-----------------|----------|--------|
-|-----------------|-----------------|----------|--------|
-|-5-4-6-5-2-5-4-3-|-2-3-6-5-2-5-4-2-|-3--------|-3--2---|
-|-3-2-4-3-0-3-2-1-|-0-1-4-3-0-3-2-0-|-1--------|-1--0---|
   . . . . . . . .   . . . . . . . .   .          .  .

[Riff 3 (x4)] /quickly!!!/
|-----------------------------|
|-----------------------------|
|-------------------------^-^-|
|-------------------------4\3-|
|-----------------------------|
|-2-1-0-1-4-3-2-3-2-1-0-1-----|
  . . . . . . . . . . . .

[Riff 4]
|-----------------|-----------------|------------[x3]-|-----------------|
|-----------------|-----------------|-----------------|-----------------|
|-----------------|-----------------|-----------------|-----------------|
|---5-4---5-4-6-5-|---5-4---5-4-6-5-|---5-4---5-4-6-5-|---5-4---5-4-6-5-|
|-4-3-2-4-3-2-4-3-|-4-3-2-4-3-2-4-3-|-4-3-2-4-3-2-4-3-|-4-3-2-4-3-2-4-3-|
|-2-----2---------|-2-----2---------|-2-----2---------|-2-----2---------|
|                 |                 |                 | . . . . . . . . |
|-----------------|-----------------|-----------------|-----------------|
|-----------------|-----------------|-----------------|-----------------|
|-----------------|-----------------|-----------------|-----------------|
|-----------------|---------5-4-6-5-|---5-4---5-4-6-5-|---5-4---5-4-6-5-|
|-----------------|-4-----4-3-2-4-3-|-4-3-2-4-3-2-4-3-|-4-3-2-4-3-2-4-3-|
|-----------------|-2-----2---------|-2-----2---------|-2-----2---------|
                    .     .                             . . . . . . . .

-|-----------------|-----------------|-------------[x2]-|
-|-----------------|-----------------|------------------|
-|-----------------|-----------------|------------------|
-|---5-4---5-4-6-5-|---5-4---5-4-6-5-|---5-4---5-4-6-5--|
-|-4-3-2-4-3-2-4-3-|-4-3-2-4-3-2-4-3-|-4-3-2-4-3-2-4-3--|
-|-2-----2---------|-2-----2---------|-2-----2----------|
 |                 | . . . . . . . . |                  |
-|-----------------|-----------------|-------------[x2]-|
-|-----------------|-----------------|------------------|
-|-----------------|-----------------|------------------|
-|---5-4---5-4-6-5-|---5-4---5-4-6-5-|---5-4---5-4-6-5--|
-|-4-3-2-4-3-2-4-3-|-4-3-2-4-3-2-4-3-|-4-3-2-4-3-2-4-3--|
-|-2-----2---------|-2-----2---------|-2-----2----------|
                     . . . . . . . .

[Riff 5]
|------------------------------------|------------------------------------|-
|------------------------------------|------------------------------------|-
|------------------------------------|------------------------------------|-
|------------------------------------|------------------------------------|-
|------------------------------------|------------------------------------|-
|-3"..........-2"-3"................-|-3"..........-2"-3"................-|-
|                                    |                                    |
|------------------------------------|------------------------------------|-
|------------------------------------|------------------------------------|-
|------------------------------------|------------------------------------|-
|------------------------------------|------------------------------------|-
|------------------------------------|-2"..........-1"-4"................-|-
|-3"..........-2"-3"................-|------------------------------------|-

-|------------------------------------|------------------------------------|
-|------------------------------------|------------------------------------|
-|------------------------------------|------------------------------------|
-|------------------------------------|-5"..........-4"-5"................-|
-|------------------------------------|------------------------------------|
-|-3"..........-2"-3"................-|------------------------------------|
 |                                    |                                    |
-|------------------------------------|------------------------------------|
-|------------------------------------|------------------------------------|
-|------------------------------------|-----------------6"................-|
-|-5"..........-4"-5"................-|-9"..........-8"--------------------|
-|------------------------------------|------------------------------------|
-|------------------------------------|------------------------------------|

[Riff 6 (x2)]
|------------------------------|------------------------------|
|------------------------------|------------------------------|
|-6"..........................-|------------------------------|
|------------------------------|------------------------------|
|------------------------------|------------------------------|
|------------------------------|-3"..........................-|
|                              |                              |
|------------------------------|------------------------------|
|------------------------------|------------------------------|
|------------------------------|------------------------------|
|-4"..........................-|-5"..........................-|
|------------------------------|------------------------------|
|------------------------------|------------------------------|

[Riff 7 (x4)]
|---------------------------------|
|---------------------------------|
|---------------------------------|
|---------------------------------|
|-4-3-3-6-5-4-5-4-2-3-------------|
|-2-1-1-4-3-2-3-2-0-1-------------|
  . . . . . . . . . .

[Riff 8 (x8)]
|-----------------------|
|-----------------------|
|-----------------------|
|-----------------------|
|-3----2----3--3/5~~----|
|-1----0----1---------5-|
  .    .    .

[Riff 9]
|--------------------[x2]-|-------------------------|-------------
|-------------------------|-------------------------|-------------
|-------------------------|-------------------------|-------------
|----5"----6"----5"----4"-|----5"----6"----5"----4"-|----5"----6"-
|-4"----4"----4"----3"----|-4"----4"----4"----3"----|-4"----4"----
|-------------------------|-------------------------|-------------
|                         |                         |
|--------------------[x2]-|-------------------------|-------------
|-------------------------|-------------------------|-------------
|-------------------------|-------------------------|-------------
|-------------------------|-6-----------------------|-------------
|-------------------------|-4-----------------------|-------------
|-------------------------|-------------------------|-------------

[BREAK]

[Riff 10]
|-------------------------------------|-------------------------------------|-
|-------------------------------------|-------------------------------------|-
|-------------------------------------|-------------------------------------|-
|----------------------------5--3-----|----------------------------5\-3-----|-
|-4--3--2--6--4--3--4--3--2--3--1--2--|-4--3--2--6--4--3--4--3--2--3\-1\-2--|-
|-2--1--0--4--2--1--2--1--0--3--1--0--|-2--1--0--4--2--1--2--1--0--3\-1\-0--|-
  .  .  .  .  .  .  .  .  .  .  .  .    .  .  .  .  .  .  .  .  .

-|-------------------------------------|-------------------------------------|
-|-------------------------------------|-------------------------------------|
-|-------------------------------------|-------------------------------------|
-|----------------------------5--3-----|----------------------------5\-3-----|
-|-4--3--2--6--4--3--4--3--2--3--1--2--|-4--3--2--6--4--3--4--3--2--3\-1\-2--|
-|-2--1--0--4--2--1--2--1--0--3--1--0--|-2--1--0--4--2--1--2--1--0--3\-1\-0--|
                              .  .  .    .  .  .  .  .  .  .  .  .

[Riff 11]
|----------------------------[x2]-|----------------------------[x2]-|
|---------------------------------|---------------------------------|
|---------------------------------|---------------------------------|
|-4-5-4-7-6---4-5-4-5-4-3-4-3-2-3-|---------------------------------|
|-2-3-2-5-4---2-3-2-3-2-1-2-1-0-1-|-4-5-4-7-6---4-5-4-5-4-3-4-3-2-3-|
|-----------0---------------------|-2-3-2-5-4-0-2-3-2-3-2-1-2-1-0-1-|

[Riff 12 (x2)]
|-------------------------------------------------------------|
|-------------------------------------------------------------|
|-------------------------------------------------------------|
|-------------------------------------------------------------|
|-6"------3"----------------------6"------3"------4--3--2--3--|
|-----5"------3"--2"--3"--5"--3"------5"------3"--2--1--0--1--|
                                                  .  .  .  .

[Riff 13]
|--------|----------------------------------------------[x2]-|
|--------|---------------------------------------------------|
|--------|---------------------------------------------------|
|--------|---------------------------------------------6\5/7-|
|-2------|----4"----2"----2"----------4"----2"---------4\3/5-|
|-0------|-3"----3"----3"----2"-1"-3"----3"----2"-1"-0-------|
  .

[Riff 14 (x4)]
|--------------------|
|--------------------|
|--------------------|
|--------------------|
|-3-2-5/6----3-2-6-5-|
|-1-0-3/4-x3-1-0-4-3-|
  . .        . . . .

[Outro B]
|---------------------------------|
|---------------------------------|
|---------------------------------|
|---------------------------------|
|-3-2-3/6-3-2-3/6-3-2-3/6-3-2-6-5-|
|-1-0-1/4-1-0-1/4-1-0-1/4-1-0-4-3-|
| . .     . .     . .     . . . . |
|---------------------------------|
|---------------------------------|
|---------------------------------|
|---------------------------------|
|-----3-6-----3-6-----3-6-3-2-6-5-|
|-----1-4-----1-4-----1-4-1-0-4-3-|
      . .     . .     . . . . . .

[Riff 15 (x2)] /quickly!!!/
|-------------------------|---------------------|
|-------------------------|---------------------|
|-------------------------|---------------------|
|-------------------------|---------------------|
|----------------------3"-|-------------3-2-3-6-|
|-0"-2"-1"-0"-3"-2"-1"----|-0"-2"-1"-0"-1-0-1-4-|
                                        . . . .

[Riff 16 (x2)]
|--------------------|--------------------|
|--------------------|--------------------|
|--------------------|--------------------|
|---------3-3--------|-----333---5-4-3----|
|-2---5-4-1-1--5-3---|-5-4-111-3-3-2-1----|
|-0---3-2------3-1---|-3-2-----1-------x2-|
  .   . . . .  . .     . . ... . . . .

[Riff 17]
|-------------------[x3]-|-------------------|
|------------------------|-------------------|
|------------------------|-------------------|
|------------------------|----------4--3-----|
|-------------2"--1"-----|-2--4--3--2--1--5--|
|-0"--2"--1"----------3"-|-0--2--1--------3--|
                           .  .  .  .  .  .

END OF SONG
comments
We did not receive enough feedback on this tab! Please rate:
print report bad tab
1 2 3 4 5
I want to post or [tab]
guest
You may want to rate the tab now too:
select rating
Please do not post tabs as comments. Select "correction" instead!