Oops, an error
Loading. Please wait.

Hot As Day Tab

1,086 views 1 this week
no commentswrite comment
1 2 3 4 5
excellent!
x 2
add to favorites launch autoscroll
font size
0
reset
Autoscroll
+/-
esc
set tempo
stop
Contributor
WARNING: You are trying to view
                                    content from Ultimate-Guitar.com
                                    in an unauthorized application,
                                    which is prohibited.

                                    Please use an official Ultimate
                                    Guitar Tabs application for iPhone,
                                    iPad or Android to access legitimate
                                    chords, guitar, bass, and drum tabs
                                    from Ultimate-Guitar.com database.

                                    Type "ultimate guitar tabs" in Apple
                                    App Store's or Android Market's
                                    search to find the application.
----------------------------------------------------------------------------
                             HOT AS DAY - Wye Oak
-----------------------------------------------------------------------------
Tabbed by: mascwe
Email:

Tuning: Drop D, capo 3rd Fret

*Fret numbers are NOT relative to capo

Live: http://www.youtube.com/watch?v=pmOvznhlJ6U
Acoustic: http://www.youtube.com/watch?v=zIZuhd5YcXE

I'm tabbing this because there are absolutely no Wye Oak tabs on the internets.  This is
how she plays it live.  The album has so many layers that I wouldn't even know where to
begin.  It's based on the 2 videos posted above.  I won't claim that this is completely 
correct, I just want to get people thinking about Wye Oak tabs.  Showing the rhythm is a
bitch on this one so you'll have to listen to it.  Leave comments and whatnot.

5/4
INTRO:

    1  +  2  +  3  +  4  +  5  +
e|--0--0--0--0--0--0--0--0--0--0-|
B|--6--6--6--6--6--6--6--6--6--6-|
G|--5--5--5--5--5--5--0-h5--5--5-|
D|--0--0--0--0--0--0--0--0--0--0-|
A|--0--0--0--0--0--0--0--0--0--0-|
D|--0--0--0--0--0--0--0--0--0--0-|x4

VERSE:

    1  +  2  +  3  +  4  +  5  +
e|--0--0--0--0--0--0--0--0--0--0-|
B|--6--6--6--6--6--6--6--6--6--6-|
G|--5--5--5--5--5--5--0-h5--5--5-|
D|--0--0--0--0--0--0--0--0--0--0-|
A|--0--0--0--0--0--0--0--0--0--0-|
D|--0--0--0--0--0--0--0--0--0--0-|x2

    1  +  2  +  3  +  4  +  5  +
e|--0--0--0--0--0--0--0--0--0--0-|
B|--4--4--4--4--4--4--4--4--4--4-|
G|--5--5--5--5--5--5--0-h5--5--5-|
D|--5--5--5--5--5--5--5--5--5--5-|
A|--0--0--0--0--0--0--0--0--0--0-|
D|--x--x--x--x--x--x--x--x--x--x-|x2

    1  +  2  +  3  +  4  +  5  +
e|--0--0--0--0--0--0--0--0--0--0-|
B|--4--4--4--4--4--4--4--4--4--4-|
G|--0--0--0--0--0--0--0--0--0--0-|
D|--0--0--0--0--0--0--0--0--0--0-|
A|--6--6--6--6--6--6--6--6--6--6-|
D|--6--6--6--6--6--6--6--6--6--6-|x2

    1  +  2  +  3  +  4  +  5  +
e|--0--0--0--0--0--0--0--0--0--0-|
B|--0--0--0--0--0--0--11-0--0--0-|
G|--0--0--0--0--0--0--0--0--12-0-|
D|--0--0--0--0--0--0--0--0--0--0-|
A|--13-13-13-13-13-13-13-13-13-13|
D|--13-13-13-13-13-13-13-13-13-13|x2

PART 2:

    1  +  2  +  3  +  4  +  5  +
e|--0--0--0--0--0--0--0--0--0--0-|
B|--9--9--9--9--9--9--9--9--9--9-|
G|--0--0--0--10-0--0--0--0--0--0-|
D|--10-0--0--0--0--0--0--10-0--0-|
A|--11-11-11-11-11-11-11-11-11-11|
D|--11-11-11-11-11-11-11-11-11-11|x2

    1  +  2  +  3  +  4  +  5  +
e|--0--0--0--0--0--0--0--0--0--0-|
B|--4--4--4--4--4--4--4--4--4--4-|
G|--0--0--0--5--0--0--0--0--0--0-|
D|--5--0--0--0--0--0--0--5--0--0-|
A|--6--6--6--6--6--6--6--6--6--6-|
D|--6--6--6--6--6--6--6--6--6--6-|x2

PART 3:

    1  +  2  +  3  +  4  +  5  +
e|--0--0--0--0--0--0--0--0--0--0-|
B|--0--0--0--0--0--0--0--0--0--0-|
G|--4--4--4--4--4--4--4--4--4--4-|
D|--0--0--0--0--0--0--0--0--0--0-|
A|--5--5--5--5--5--5--5--5--5--5-|
D|--5--5--5--5--5--5--5--5--5--5-|x2

    1  +  2  +  3  +  4  +  5  +
e|--0--0--0--0--0--0--0--0--0--0-|
B|--4--4--4--4--4--4--4--4--4--4-|
G|--0--0--0--0--0--0--0--0--0--0-|
D|--0--0--0--0--0--0--0--0--0--0-|
A|--6--6--6--6--6--6--6--6--6--6-|
D|--6--6--6--6--6--6--6--6--6--6-|x2

    1  +  2  +  3  +  4  +  5  +  1  +  2  +  3  +  4  +  5  +
e|--0--0--0--0--0--0--0--0--0--0--0--0--0--0--0--0--0--0--0--0-|
B|--11-11-11-11-11-11-11-11-11-11-0--0--0--0--0--0--0--0--0--0-|
G|--0--0--0--0--0--0--0--0--0--0--12-12-12-12-12-12-12-12-12-12|
D|--0--0--0--0--0--0--0--0--0--0--0--0--0--0--0--0--0--0--0--0-|
A|--13-13-13-13-13-13-13-13-13-13-13-13-13-13-13-13-13-13-13-13|
D|--13-13-13-13-13-13-13-13-13-13-13-13-13-13-13-13-13-13-13-13|x2

THIS TRANSITION: 1:11 to 1:27 on the album version.  Live, she plays the following, but
when doing it acoustic she just plays through the verse once because she wouldn't be
able to get to these frets without a cutaway on her acoustic.  She actually plays this 
kind of different in most videos, but she generally starts rocking out pretty hard right when
they get to this part, so it's hard to tell.  This is probably the most consistent thing 
you can do.

    1  +  2  +  3  +  4  +  5  +
e|--0--0--0--0--0--0--0--0--0--0-|
B|--13-13-13-13-13-13-13-13-13-13|
G|--15-15-15-15-15-15-15-15-15-15|
D|--15-15-15-15-15-15-15-15-15-15|
A|--0--0--0--0--0--0--0--0--0--0-|
D|--0--0--0--0--0--0--0--0--0--0-|x2

    1  +  2  +  3  +  4  +  5  +
e|--0--0--0--0--0--0--0--0--0--0-|
B|--16-16-16-16-16-16-16-16-16-16|
G|--17-17-17-17-17-17-17-17-17-17|
D|--17-17-17-17-17-17-17-17-17-17|
A|--0--0--0--0--0--0--0--0--0--0-|
D|--0--0--0--0--0--0--0--0--0--0-|x3(Yes, 3 times, it's more dramatic.)

    1  +  2  +  3  +  4  +  5  +
e|--0--0--0--0--0--0--0--0--0--0-|
B|--16-16-16-16-16-16-16-16-16-16|
G|--17-17-17-17-17-17-17-17-17-17|
D|--18-18-18-18-18-18-18-18-18-18|
A|--0--0--0--0--0--0--0--0--0--0-|
D|--0--0--0--0--0--0--0--0--0--0-|x1

    1  +  2  +  3  +  4  +  5  +
e|--0--0--0--0--0--0--0--0--0--0-|
B|--11-11-11-11-11-11-11-11-11-11|
G|--12-12-12-12-12-12-12-12-12-12|
D|--13-13-13-13-13-13-13-13-13-13|
A|--0--0--0--0--0--0--0--0--0--0-|
D|--0--0--0--0--0--0--0--0--0--0-|x2

PLAY THROUGH VERSE, PART 2, PART 3 AGAIN, then it jumps to 6/4 and she rocks out some
more, only harder this time:

6/4, repeat to end.

    1  +  2  +  3  +  4  +  5  +  6  +
e|--0--0--0--0--0--0--0--0--0--0--0--0-|
B|--13-13-13-13-13-13-13-13-13-13-13-13|
G|--15-15-15-15-15-15-15-15-14-14-14-14|
D|--0--0--0--0--0--0--0--0--0--0--0--0-|
A|--0--0--0--0--0--0--0--0--0--0--0--0-|
D|--0--0--0--0--0--0--0--0--0--0--0--0-|

    1  +  2  +  3  +  4  +  5  +  6  +
e|--0--0--0--0--0--0--0--0--0--0--0--0-|
B|--11-11-11-11-11-11-11-11-11-11-11-11|
G|--13-13-13-13-13-13-13-13-12-12-12-12|
D|--0--0--0--0--0--0--0--0--0--0--0--0-|
A|--0--0--0--0--0--0--0--0--0--0--0--0-|
D|--0--0--0--0--0--0--0--0--0--0--0--0-|

    1  +  2  +  3  +  4  +  5  +  6  +
e|--0--0--0--0--0--0--0--0--0--0--0--0-|
B|--10-10-10-10-10-10-10-10-10-10-10-10|
G|--12-12-12-12-12-12-12-12-10-10-10-10|
D|--0--0--0--0--0--0--0--0--0--0--0--0-|
A|--0--0--0--0--0--0--0--0--0--0--0--0-|
D|--0--0--0--0--0--0--0--0--0--0--0--0-|

    1  +  2  +  3  +  4  +  5  +  6  +
e|--0--0--0--0--0--0--0--0--0--0--0--0-|
B|--6--6--6--6--6--6--6--6--6--6--6--6-|
G|--8--8--8--8--8--8--8--8--6--6--6--6-|
D|--0--0--0--0--0--0--0--0--0--0--0--0-|
A|--0--0--0--0--0--0--0--0--0--0--0--0-|
D|--0--0--0--0--0--0--0--0--0--0--0--0-|
comments
We did not receive enough feedback on this tab! Please rate:
print report bad tab
1 2 3 4 5
I want to post or [tab]
guest
You may want to rate the tab now too:
select rating
Please do not post tabs as comments. Select "correction" instead!