Oops, an error
Loading. Please wait.

Superficial Tab

by X-Y
211 views 3 this week
no commentswrite comment
1 2 3 4 5
excellent!
x 1
Autoscroll
+/-
esc
set tempo
stop
Contributor
Difficulty
X-Y
intermediate
NEW! There's an official Ultimate Guitar app which is ideal
for learning songs when you're away from computer. Get the app
WARNING: You are trying to view
                                    content from Ultimate-Guitar.com
                                    in an unauthorized application,
                                    which is prohibited.

                                    Please use an official Ultimate
                                    Guitar Tabs application for iPhone,
                                    iPad or Android to access legitimate
                                    chords, guitar, bass, and drum tabs
                                    from Ultimate-Guitar.com database.

                                    Type "ultimate guitar tabs" in Apple
                                    App Store's or Android Market's
                                    search to find the application.
                       
                       XY - Superficial

                                       Music & Words by J-L Ducroiset


tabbed by: J-L Ducroiset
email    : jl@xyofficial
website  : www.xyofficial.com
Facebook : XYofficial
iTunes link: http://itunes.apple.com/us/album/flying/id470376333
Live version: https://www.youtube.com/watch?v=Rmll46Nc304
"Rock Band 3" version: https://www.youtube.com/watch?v=32sh7ikNO60


Notation:

  b      : bend 
  h      : hammer-on
  p      : pull-off                                 
  \      : slide down               
  /      : slide up                 
  ~      : vibrato
  x      : mute note
  P.M    : palm mute
  <  >   : natural harmonic
  A.H    : artificial harmonic


(This is the live version, for 2 guitars, slightly different from the studio version)


Intro: (with delay)
                         
   Em                                C               D 
e|---------------------------------|---------------------------------|
B|---------------------------------|---------------------------------|
G|---9-----7-----7-----7-------7h9-|-----9-----7-----7-----7-----7h9-|
D|---------------------------------|---------------------------------|
A|-7-----7-----7-----7-----7-7-----|-7-7-----7-----7-----7-----7-----|
E|---------------------------------|---------------------------------|
 |
 |
e|---------------------------------|---------------------------------|
B|---------------------------------|---------------------------------|
G|---------------------------------|---------------------------------|
D|---------------------------------|---------------------------------|
A|---------------------------------|---------------------------------|
E|---------------------------------|---------------------------------|


   Em                                C               D 
e|---------------------------------|---------------------------------|
B|---------------------------------|---------------------------------|
G|---9-----7-----7-----7-------7h9-|-----9-----7-----7-----7-----7h9-|
D|---------------------------------|---------------------------------|
A|-7-----7-----7-----7-----7-7-----|-7-7-----7-----7-----7-----7-----|
E|---------------------------------|---------------------------------|
 |
 | Em                                C               D
e|---------------------------------|<5>------------------------------|
B|<12>-----------------------------|<5>-------------<7>--------------|
G|<12>-----------------------------|<5>-------------<7>--------------|
D|<12>-----------------------------|----------------<7>--------------|
A|---------------------------------|---------------------------------|
E|---------------------------------|---------------------------------|


   Em                                C               D 
e|---------------------------------|---------------------------------|
B|---------------------------------|---------------------------------|
G|---9-----7-----7-----7-------7h9-|-----9-----7-----7-----7-----7h9-|
D|---------------------------------|---------------------------------|
A|-7-----7-----7-----7-----7-7-----|-7-7-----7-----7-----7-----7-----|
E|---------------------------------|---------------------------------|
 |
 | Em                                C               D
e|---------------------------------|<5>------------------------------|
B|<12>-----------------------------|<5>-------------<7>--------------|
G|<12>-----------------------------|<5>-------------<7>--------------|
D|<12>-----------------------------|----------------<7>--------------|
A|---------------------------------|---------------------------------|
E|---------------------------------|---------------------------------|


   Em                                C               D 
e|---------------------------------|---------------------------------|
B|---------------------------------|---------------------------------|
G|---9-----7-----7-----7-------7h9-|-----9-----7-----7-----7-----7h9-|
D|---------------------------------|---------------------------------|
A|-7-----7-----7-----7-----7-7-----|-7-7-----7-----7-----7-----7-----|
E|---------------------------------|---------------------------------|
 |
 | Em                                C               D
e|---------------------------------|-----------------------<12>------|
B|<12>-----------------------------|------<7>---------<12>-----------|
G|<12>-----------------------------|--<5>-----<7>--------------------|
D|<12>-----------------------------|--------------<7>----------------|
A|---------------------------------|---------------------------------|
E|---------------------------------|---------------------------------|



Verse 1: "Losing control..."

   Em                                C               D 
e|---------------------------------|---------------------------------|
B|---------------------------------|---------------------------------|
G|---9-----7-----7-----7-------7h9-|-----9-----7-----7-----7-----7h9-|
D|---------------------------------|---------------------------------|
A|-7-----7-----7-----7-----7-7-----|-7-7-----7-----7-----7-----7-----|
E|---------------------------------|---------------------------------|
 |
 | Em                                C               D
e|---------------------------------|<5>------------------------------|
B|<12>-----------------------------|<5>-------------<7>--------------|
G|<12>-----------------------------|<5>-------------<7>--------------|
D|<12>-----------------------------|----------------<7>--------------|
A|---------------------------------|---------------------------------|
E|---------------------------------|---------------------------------|


   Em                                C               D
e|---------------------------------|---------------------------------|
B|---------------------------------|---------------------------------|
G|---9-----7-----7-----7-------7h9-|-----9-----7-----7-----7-----7h9-|
D|---------------------------------|---------------------------------|
A|-7-----7-----7-----7-----7-7-----|-7-7-----7-----7-----7-----7-----|
E|---------------------------------|---------------------------------|
 |
 | Em                                C               D
e|---------------------------------|-----------------------<12>------|
B|<12>-----------------------------|------<7>---------<12>-----------|
G|<12>-----------------------------|--<5>-----<7>--------------------|
D|<12>-----------------------------|--------------<7>----------------|
A|---------------------------------|---------------------------------|
E|---------------------------------|---------------------------------|


   Em                                C               D 
e|---------------------------------|---------------------------------|
B|---------------------------------|---------------------------------|
G|---9-----7-----7-----7-------7h9-|-----9-----7-----7-----7-----7h9-|
D|---------------------------------|---------------------------------|
A|-7-----7-----7-----7-----7-7-----|-7-7-----7-----7-----7-----7-----|
E|---------------------------------|---------------------------------|
 |
 | Em                                C               D
e|---------------------------------|<5>------------------------------|
B|<12>-----------------------------|<5>-------------<7>--------------|
G|<12>-----------------------------|<5>-------------<7>--------------|
D|<12>-----------------------------|----------------<7>--------------|
A|---------------------------------|---------------------------------|
E|---------------------------------|---------------------------------|


   Em                                            D
e|---------------------------------|---------------------------------|
B|---------------------------------|---------------------------------|
G|---9-----7-----7-----7-------7h9-|---------------------------------|
D|---------------------------------|---------------------------------|
A|-7-----7-----7-----7-----7-7-----|-2-----5-----5-----5-5---5---5---|
E|---------------------------------|-0---x-3---x-2-----2-2-x-2h3-2---|
 |
 | Em                                            D
e|---------------------------------|---------------------------------|
B|---------------------------------|---------------------------------|
G|---------------------------------|---------------------------------|
D|---------------------------------|---------------------------------|
A|-2---2-2-2-2-2-2-2-2-2-2-2-2-2-2-|-2-----5-----5-----5-5---5---5---|
E|-0---0-0-0-0-0-0-0-0-0-0-0-0-0-0-|-0---x-3---x-2-----2-2-x-2h3-2---|
      P.M_________________________



Riff:

   Em                                           
e|---------------------------------|---------------------------------|
B|---------------------------------|---------------------------------|
G|---------------------------------|---------------------------------|
D|--------------------/5-----------|---------------------------------|
A|-2------/7-------------5---------|--------/7-----------5-----5---5-|
E|-0---0-0---6-0-0-0-0-----0-0/9-8-|-7h0-0-0---6-0-0-0-0-3-0-0-3-0-3-|
 |     P.M     _______     ___           ___     _______   ___   _
 | Em
e|---------------------------------|---------------------------------|
B|---------------------------------|---------------------------------|
G|---------------------------------|---------------------------------|
D|--------------------/5-----------|---------------------------------|
A|-2------/7-------------5---------|--------/7-----------5-----5---5-|
E|-0---0-0---6-0-0-0-0-----0-0/9-8-|-7h0-0-0---6-0-0-0-0-3-0-0-3-0-3-|
       P.M     _______     ___           ___     _______   ___   _


   Em                                                           A.H
e|---------------------------------|---------------------------------|
B|---------------------------------|---------------------------------|
G|---------------------------------|-----------------------------9~--|
D|--------------------/5-----------|-------------------------8-x-----|
A|------------/7---------5---------|--------/7-----------7-x---------|
E|---0-0-0-0-0---6-0-0-----0-0/9-8-|-7h0-0-0---6-0-0-0-0-------------|
 |   P.M______     ___     ___           ___     _______  
 | Em
e|---------------------------------|---------------------------------|
B|---------------------------------|---------------------------------|
G|---------------------------------|-----------------------------9~--|
D|--------------------/5-----------|-------------------------8-x-----|
A|------------/7---------5---------|--------/7-----------7-x---------|
E|---0-0-0-0-0---6-0-0-----0-0/9-8-|-7h0-0-0---6-0-0-0-0-------------|
     P.M______     ___     ___           ___     _______ 


   Em                                           
e|---------------------------------|---------------------------------|
B|---------------------------------|---------------------------------|
G|---------------------------------|---------------------------------|
D|--------------------/5-----------|---------------------------------|
A|-2------/7-------------5---------|--------/7-----------5-----5---5-|
E|-0---0-0---6-0-0-0-0-----0-0/9-8-|-7h0-0-0---6-0-0-0-0-3-0-0-3-0-3-|
 |     P.M     _______     ___           ___     _______   ___   _
 | Em
e|---------------------------------|---------------------------------|
B|---------------------------------|---------------------------------|
G|---------------------------------|---------------------------------|
D|--------------------/5-----------|---------------------------------|
A|-2------/7-------------5---------|--------/7-----------5-----5---5-|
E|-0---0-0---6-0-0-0-0-----0-0/9-8-|-7h0-0-0---6-0-0-0-0-3-0-0-3-0-3-|
       P.M     _______     ___           ___     _______   ___   _


   Em                                                         A.H
e|---------------------------------|---------------------------------|
B|---------------------------------|---------------------------------|
G|---------------------------------|---------------------------9~----|
D|--------------------/5-----------|-----------------------8-x-------|
A|------------/7---------5---------|--------/7---------7-x-----------|
E|---0-0-0-0-0---6-0-0-----0-0/9-8-|-7h0-0-0---6-0-0-0---------------|
 |   P.M______     ___     ___           ___     _____  
 | Em
e|---------------------------------|---------------------------------|
B|---------------------------------|---------------------------------|
G|---------------------------------|---------------------------9~----|
D|--------------------/5-----------|-----------------------8-x-------|
A|------------/7---------5---------|--------/7---------7-x-----------|
E|---0-0-0-0-0---6-0-0-----0-0/9-8-|-7h0-0-0---6-0-0-0---------------|
     P.M______     ___     ___           ___     _____ 



Verse 2: "A few weeks..."

   Em                                C               D 
e|---------------------------------|---------------------------------|
B|---------------------------------|---------------------------------|
G|---9-----7-----7-----7-------7h9-|-----9-----7-----7-----7-----7h9-|
D|---------------------------------|---------------------------------|
A|-7-----7-----7-----7-----7-7-----|-7-7-----7-----7-----7-----7-----|
E|---------------------------------|---------------------------------|
 |
 | Em                                C               D
e|---------------------------------|<5>------------------------------|
B|<12>-----------------------------|<5>-------------<7>--------------|
G|<12>-----------------------------|<5>-------------<7>--------------|
D|<12>-----------------------------|----------------<7>--------------|
A|---------------------------------|---------------------------------|
E|---------------------------------|---------------------------------|


   Em                                C               D
e|---------------------------------|---------------------------------|
B|---------------------------------|---------------------------------|
G|---9-----7-----7-----7-------7h9-|-----9-----7-----7-----7-----7h9-|
D|---------------------------------|---------------------------------|
A|-7-----7-----7-----7-----7-7-----|-7-7-----7-----7-----7-----7-----|
E|---------------------------------|---------------------------------|
 |
 | Em                                C               D
e|---------------------------------|-----------------------<12>------|
B|<12>-----------------------------|------<7>---------<12>-----------|
G|<12>-----------------------------|--<5>-----<7>--------------------|
D|<12>-----------------------------|--------------<7>----------------|
A|---------------------------------|---------------------------------|
E|---------------------------------|---------------------------------|


   Em                                C               D 
e|---------------------------------|---------------------------------|
B|---------------------------------|---------------------------------|
G|---9-----7-----7-----7-------7h9-|-----9-----7-----7-----7-----7h9-|
D|---------------------------------|---------------------------------|
A|-7-----7-----7-----7-----7-7-----|-7-7-----7-----7-----7-----7-----|
E|---------------------------------|---------------------------------|
 |
 | Em                                C               D
e|---------------------------------|---------------------------------|
B|---------------------------------|---------------------------------|
G|---------------------------------|---------------------------------|
D|---------------------------------|---------------------------------|
A|-2-------2-----------------------|-2-------2-----------------------|
E|-0-0-0-0-0-----------------------|-0-0-0-0-0-----------------------|
  P.M_______                        P.M_______

   Em                                            D
e|---------------------------------|---------------------------------|
B|---------------------------------|---------------------------------|
G|---9-----7-----7-----7-------7h9-|-9----/12----11------------------|
D|---------------------------------|---------------------------------|
A|-7-----7-----7-----7-----7-7-----|---------------------------------|
E|---------------------------------|----------------------------x--\-|
 |
 | Em                                            D
e|---------------------------------|---------------------------------|
B|---------------------------------|---------------------------------|
G|---------------------------------|---------------------------------|
D|---------------------------------|---------------------------------|
A|-2-2-2-2-2-2-2-2-2-2-2-2-2-2-2-2-|-2-----5-----5-------------------|
E|-0-0-0-0-0-0-0-0-0-0-0-0-0-0-0-0-|-0---x-3---x-2--------------/--\-|
  P.M.____________________________



Chorus: "I"m tired of wasting..."

   Em                                D           C
e|---------------------------------|---------------------------------|
B|-------------5-----5-x-x-3~------|---------------------------------|
G|-------------x-----------x-------|-7-----7-----5-----5-----5-------|
D|-------------x-------------------|-7-----7-----5-----5-----5-------|
A|-2-----2-------------------------|-5-----5-x-x-3-----3-x-x-3-x-----|
E|-0-----0-x-x---------------------|-----------------------------2h3-|
 |
 | Em                                D           C
e|---------------------------------|---------------------------------|
B|------------/8-----------7~------|---------------------------------|
G|---------------------------------|-7-----7-----5-----5-----5-------|
D|---------------------------------|-7-----7-----5-----5-----5-------|
A|-2-----2-------------------------|-5-----5-x-x-3-----3-x-x-3-x-----|
E|-0-----0-x-x---------------------|-----------------------------2h3-|


   Em                                D           C
e|---------------------------------|---------------------------------|
B|-------------5-----5-x-x-3~------|---------------------------------|
G|-------------x-----------x-------|-7-----7-----5-----5-----5-------|
D|-------------x-------------------|-7-----7-----5-----5-----5-------|
A|-2-----2-------------------------|-5-----5-x-x-3-----3-x-x-3-x-----|
E|-0-----0-x-x---------------------|----------------------------/3p2-|
 |
 | Em                                D           C
e|---------------------------------|---------------------------------|
B|---------------------------------|---------------------------------|
G|-------------9-----------9-------|-7-----7-----5-----5-----5-------|
D|-------------9-----------9-------|-7-----7-----5-----5-----5-------|
A|-2-----2-----7-----------7---x-x-|-5-----5-x-x-3-----3-x-x-3-x-----|
E|-0-----0-x-x---------------------|----------------------------/3p2-|


   Em                                D           C
e|---------------------------------|---------------------------------|
B|-------------5-----5-x-x-3~------|---------------------------------|
G|-------------x-----------x-------|-7-----7-----5-----5-----5-------|
D|-------------x-------------------|-7-----7-----5-----5-----5-------|
A|-2-----2-------------------------|-5-----5-x-x-3-----3-x-x-3-x-----|
E|-0-----0-x-x---------------------|-----------------------------2h3-|
 |
 | Em                                D           C
e|---------------------------------|---------------------------------|
B|------------/8-----------7~------|---------------------------------|
G|---------------------------------|-7-----7-----5-----5-----5-------|
D|---------------------------------|-7-----7-----5-----5-----5-------|
A|-2-----2-------------------------|-5-----5-x-x-3-----3-x-x-3-x-----|
E|-0-----0-x-x---------------------|-----------------------------2h3-|



   Em                                D           C
e|---------------------------------|---------------------------------|
B|-------------5-----5-x-x-3~------|---------------------------------|
G|-------------x-----------x-------|-7-----7-----5-------------------|
D|-------------x-------------------|-7-----7-----5-------------------|
A|-2-----2-------------------------|-5-----5-x-x-3-------------------|
E|-0-----0-x-x---------------------|---------------------------------|
 |
 | Em                                D           C
e|---------------------------------|---------------------------------|-----
B|---------------------------------|---------------------------------|-----
G|-------------9-----------9-------|-7-----7-----5-----5-----5-------|-----
D|-------------9-----------9-------|-7-----7-----5-----5-----5-------|-2---
A|-2-----2-----7-----------7---x-x-|-5-----5-x-x-3-----3-x-x-3-x-----|-2---
E|-0-----0-x-x---------------------|----------------------------/3p2-|-0---



Bridge:

   Em
e|---------------------------------|----------------10---------------|
B|--12----12----13----13----12--10-|----10----10----------12--13--12-|
G|-9---9-9---9-9---9-9---9-9---9---|-9-9---9-9---9-9---9-9---9---9---|
D|---------------------------------|---------------------------------|
A|---------------------------------|---------------------------------|
E|---------------------------------|---------------------------------|
 |                                                                
 |                                                                                   
e|---------------------------------|---------------------------------|
B|---------------------------------|---------------------------------|
G|---------------------------------|---------------------------------|
D|---------------------------------|---------------------------------|
A|---------------------------------|---------------------------------|
E|---------------------------------|---------------------------------|


   Em
e|---------------------------------|----------------10---------------|
B|--12----12----13----13----12--10-|----10----10----------12--13--12-|
G|-9---9-9---9-9---9-9---9-9---9---|-9-9---9-9---9-9---9-9---9---9---|
D|---------------------------------|---------------------------------|
A|---------------------------------|---------------------------------|
E|---------------------------------|---------------------------------|
 |                                                                      (x2)
 | Em
e|---------------------------------|---------------------------------|
B|---------------------------------|---------------------------------|
G|---------------------------------|---------------------------------|
D|---------------------------------|---------------------------------|
A|-2-2---------2-2-----------------|-2-2-----------2-2---------------|
E|-0-0---------0-0-----------------|-0-0-----------0-0---------------|
   P.M         ___                   ___           ___


   Em
e|---------------------------------|----------------10---------------|
B|--12----12----13----13----12--10-|----10----10----------12--13--12-|
G|-9---9-9---9-9---9-9---9-9---9---|-9-9---9-9---9-9---9-9---9---9---|
D|---------------------------------|---------------------------------|
A|---------------------------------|---------------------------------|
E|---------------------------------|---------------------------------|
 |                                                                      (x2)
 | Em
e|---------------------------------|---------------------------------|
B|---------------------------------|---------------------------------|
G|---------------------------------|---------------------------------|
D|---------------------------------|---------------------------------|
A|-2-------------------------------|-2-------------------------------|
E|-0-0-0-0-0-0-0-0-0-0-0-0-0-0-0-0-|-0-0-0-0-0-0-0-0-0-0-0-0-0-0-0-0-|
  P.M________________________________________________________________



Chorus: "I"m tired of wasting..."   (x2)


Riff:

   Em                             
e|---------------------------------|---------------------------------|
B|---------------------------------|---------------------------------|
G|---------------------------------|---------------------------------|
D|--------------------/5-----------|---------------------------------|
A|-2------/7-------------5---------|--------/7-----------5-----5---5-|
E|-0---0-0---6-0-0-0-0-----0-0/9-8-|-7h0-0-0---6-0-0-0-0-3-0-0-3-0-3-|
 |     P.M     _______     ___           ___     _______   ___   _
 | Em
e|---------------------------------|---------------------------------|
B|---------------------------------|---------------------------------|
G|---------------------------------|---------------------------------|
D|--------------------/5-----------|---------------------------------|
A|-2------/7-------------5---------|--------/7-----------5-----5---5-|
E|-0---0-0---6-0-0-0-0-----0-0/9-8-|-7h0-0-0---6-0-0-0-0-3-0-0-3-0-3-|
       P.M     _______     ___           ___     _______   ___   _


   Em                                                           A.H
e|---------------------------------|---------------------------------|
B|---------------------------------|---------------------------------|
G|---------------------------------|-----------------------------9~--|
D|--------------------/5-----------|-------------------------8-x-----|
A|------------/7---------5---------|--------/7-----------7-x---------|
E|---0-0-0-0-0---6-0-0-----0-0/9-8-|-7h0-0-0---6-0-0-0-0-------------|
 |   P.M______     ___     ___           ___     _______  
 | Em
e|---------------------------------|---------------------------------|
B|---------------------------------|---------------------------------|
G|---------------------------------|-----------------------------9~--|
D|--------------------/5-----------|-------------------------8-x-----|
A|------------/7---------5---------|--------/7-----------7-x---------|
E|---0-0-0-0-0---6-0-0-----0-0/9-8-|-7h0-0-0---6-0-0-0-0-------------|
     P.M______     ___     ___           ___     _______ 


   Em                                                             A.H
e|---------------------------------|---------------------------------|
B|---------------------------------|---------------------------------|
G|---------------------------------|---------------------------------|
D|--------------------/5-----------|---------------------------------|
A|-2------/7-------------5---------|--------/7-----------------5---5-|
E|-0---------6~---------------/9-8-|-7~--------6~--------------3-0---|
 |
 | Em
e|---------------------------------|---------------------------------|
B|---------------------------------|---------------------------------|
G|---------------------------------|---------------------------------|
D|---------------------------------|---------------------------------|
A|-2-------------------------------|---------------------------------|
E|-0-0-0-0-0-0-0-0-0-0-0-0-0-0-0-0-|-0-0-0-0-0-0-0-0-0-0-0-0-0-0-0-0-|
   P.M______________________________________________________________


   Em
e|---------------------------------|---------------------------------|
B|---------------------------------|---------------------------------|
G|---------------------------------|---------------------------------|
D|--------------------/5-----------|---------------------------------|
A|--------/7-------------5---------|-----------2---2---2---2-----2---|
E|-----0-----6~---------------/9-8-|-7~------x-0---0---0---0---000---|
 |
 | Em
e|---------------------------------|---------------------------------|
B|---------------------------------|---------------------------------|
G|---------------------------------|---------------------------------|
D|---------------------------------|---------------------------------|
A|-2-------------------------------|-----------2---2---2---2-----2---|
E|-0-0-0-0-0-0-0-0-0-0-0-0-0-0-0-0-|-0-0-0-0-0-0---0---0---0---000---|
   P.M___________________________________________________________



comments
We did not receive enough feedback on this tab! Please rate:
print report bad tab
1 2 3 4 5
I want to post or [tab]
guest
You may want to rate the tab now too:
select rating
Please do not post tabs as comments. Select "correction" instead!