Oops, an error
Loading. Please wait.

Welcome To My Place Tab

by X-y
997 views 6 this week
no commentswrite comment
1 2 3 4 5
excellent!
x 3
add to favorites launch autoscroll
font size
0
reset
Autoscroll
+/-
esc
set tempo
stop
Contributor
Difficulty
X-Y
intermediate
WARNING: You are trying to view
                                    content from Ultimate-Guitar.com
                                    in an unauthorized application,
                                    which is prohibited.

                                    Please use an official Ultimate
                                    Guitar Tabs application for iPhone,
                                    iPad or Android to access legitimate
                                    chords, guitar, bass, and drum tabs
                                    from Ultimate-Guitar.com database.

                                    Type "ultimate guitar tabs" in Apple
                                    App Store's or Android Market's
                                    search to find the application.
                       
                       XY - Welcome to my place



tabbed by: J-L Ducroiset
email    : jl@xyofficial.com
website  : www.xyofficial.com
Facebook : XYofficial
iTunes link: http://itunes.apple.com/us/album/welcome-to-my-place-single/id556375481
music video: http://www.youtube.com/watch?v=pGWGA9IubuQ


Notation:

  b( )   : bend 
  h      : hammer-on
  p      : pull-off                                 
  \      : slide down               
  /      : slide up                 
  ~      : vibrato
  x      : mute note
  P.M.   : palm mute
  <  >   : natural harmonic


BPM: 158 (chorus: 160)
For 2 guitars



Intro: (clean sound)

                         
   C#m                               B
e|-0-----0-----0-----0-----0-----0-|---0-----0-----0-----0-----0-----|
B|---0-----0-----0-----0-----0-----|-----0-----0-----0-----0-------0-|
G|-----9-----9-----9-----9-----9---|-8-----8-----8-----8-----8---8---| 
D|---------------------------------|---------------------------------|
A|---------------------------------|---------------------------------|
E|---------------------------------|---------------------------------|
 |
 |
e|---------------------------------|---------------------------------|
B|---------------------------------|---------------------------------|
G|---------------------------------|---------------------------------| 
D|---------------------------------|---------------------------------|
A|---------------------------------|---------------------------------|
E|---------------------------------|---------------------------------|



   A                                       B                                 
e|---------------------------------------|---------------------------------|
B|----0------0------0------0------0------|-----0-----0-----0-----0-----0---|
G|------9------9------9------9------9----|---8-----8-----8-----8-----8-----| 
D|-11-----11-----11-----11-----11-----11-|-9-----9-----9-----9-----9-----9-|
A|---------------------------------------|---------------------------------|
E|---------------------------------------|---------------------------------|
 |
 |
e|-<12>----------------------------------|---------------------------------|
B|---------------------------------------|-<12>----------------------------|
G|---------------------------------------|---------------------------------| 
D|---------------------------------------|---------------------------------|
A|---------------------------------------|---------------------------------|
E|---------------------------------------|---------------------------------|



Verse 1:  (x2 , 2nd time: crunch sound for guitar 2)


   C#m                               B
e|-0-----0-----0-----0-----0-----0-|---0-----0-----0-----0-----0-----|
B|---0-----0-----0-----0-----0-----|-----0-----0-----0-----0-------0-|
G|-----9-----9-----9-----9-----9---|-8-----8-----8-----8-----8---8---| 
D|---------------------------------|---------------------------------|
A|---------------------------------|---------------------------------|
E|---------------------------------|---------------------------------|
 |
 |
e|---------------------------------|---------------------------------|
B|---------------------------------|---------------------------------|
G|-6-6-6-6---6---6---6-6-6---6-6-6-|-8-8-8-8---8---8---8---8-8-8-8-8-| 
D|-x-x-x-x---x---x---x-x-x---x-x-x-|-x-x-x-x---x---x---x---x-x-x-x-x-|
A|-4-4-4-4---4---4---4-4-4---4-4-4-|-6-6-6-6---6---6---6---6-6-6-6-6-|
E|---------------------------------|---------------------------------|



   A                                       B                                 
e|---------------------------------------|---------------------------------|
B|----0------0------0------0------0------|-----0-----0-----0-----0---------|
G|------9------9------9------9------9----|---8-----8-----8-----8-----------| 
D|-11-----11-----11-----11-----11-----11-|-9-----9-----9-----9-------------|
A|---------------------------------------|---------------------------------|
E|---------------------------------------|---------------------------------|
 |
 |
e|---------------------------------------|---------------------------------|
B|---------------------------------------|---------------------------------|
G|--9-9-9-9----9----9----9-9-9----9-9-9--|-8-8-8-8---8---8---8-8-8---------| 
D|--x-x-x-x----x----x----x-x-x----x-x-x--|-x-x-x-x---x---x---x-x-x---------|
A|--7-7-7-7----7----7----7-7-7----7-7-7--|-6-6-6-6---6---6---6-6-6---------|
E|---------------------------------------|---------------------------------|



Chorus 1: (distorted sound)  "We're losing control..."


   E                      B                    A                      B
e|----------------------|--------------------|----------------------|---------------------------|
B|----------------------|--------------------|----------5---------5-|---------------------------|
G|----------------------|--------------------|-------4/6-6~~---4/6--|---------------------------| 
D|----------------------|-4-----4/-9~~---4/9-|-2--------------------|-4-----4/9~--9-9-9-9-7-7-6-|
A|-2--------------------|-2---2--------2-----|-0---0---------0------|-2---2---------------------|
E|-0---0-3/-12~~-0-3/12\|--------------------|----------------------|---------------------------|
 |
 |
e|----------------------|--------------------|----------------------|---------------------------|
B|----------------------|--------------------|----------------------|---------------------------|
G|----------------------|-4--------------4---|-2---------------2----|-4-------------------------| 
D|-2---------------2----|-4--------------4---|-2---------------2----|-4-----------6-6-6-6-4-4-2-|
A|-2---------------2----|-2--------------2---|-0---------------0----|-2-------------------------|
E|-0---------------0----|-2--------------2---|----------------------|---------------------------|



   E                      B                    A                      B
e|----------------------|--------------------|----------------------|----------------------|
B|----------------------|--------------------|----------5---------5-|-----------------/10p9|
G|----------------------|--------------------|-------4/6-6~~---4/6--|-8-8h9-8-8-8h9-8------| 
D|----------------------|-4-----4/-9~~---4/9-|-2--------------------|--9---9-9-9---9-9-----|
A|-2--------------------|-2---2--------2-----|-0---0---------0------|----------------------|
E|-0---0-3/-12~~-0-3/12\|--------------------|----------------------|----------------------|
 |
 |
e|----------------------|--------------------|----------------------|----------------------|
B|----------------------|--------------------|----------------------|----------------------|
G|-8-8h9-8-8-8h9-8-8h9--|-8-8h9-8-8-8h9-8-8h9|-8-8h9-8-8-8h9-8-8h9--|-4-4h6-4-4-4h6-4-4h6--| 
D|--9---9-9-9---9-9-----|--9---9-9-9---9-9---|--9---9-9-9---9-9-----|--6---6-6-6---6-6-----|
A|----------------------|--------------------|----------------------|----------------------|
E|----------------------|--------------------|----------------------|----------------------|
  P.M.  _____   ___      P.M.  _____   ___    P.M.  _____   ___      P.M.  _____   ___



Verse 2, part 1: (guitar 1: distorted, guitar 2: crunch)

   C#m                               B
e|---------------------------------|---------------------------------|
B|---------------------------------|----------------------/12--\10---|
G|-9~~-----------------------------|-/8~~----------------------------| 
D|---------------------------------|---------------------------------|
A|---------------------------------|---------------------------------|
E|---------------------------------|---------------------------------|
 |
 |
e|---------------------------------|---------------------------------|
B|---------------------------------|---------------------------------|
G|-6~~-----------------------------|-8-8-8-8---8---8---8---8-8-8-8-8-| 
D|---------------------------------|-x-x-x-x---x---x---x---x-x-x-x-x-|
A|---------------------------------|-6-6-6-6---6---6---6---6-6-6-6-6-|
E|---------------------------------|---------------------------------|



   A                                     B                                 
e|-------------------------------------|---------------------------------|
B|-------------------------------------|---------------------------------|
G|---\6~~--------------------------/6--|-\4------------------------------| 
D|-------------------------------------|-------4~~-------------------2h4-|
A|-------------------------------------|---------------------------------|
E|-------------------------------------|---------------------------------|
 |
 |
e|-------------------------------------|---------------------------------|
B|-------------------------------------|---------------------------------|
G|-9-9-9-9----9----9----9-9-9----9-9-9-|-8-8-8-8---8---8---8---8-8-8-----| 
D|-x-x-x-x----x----x----x-x-x----x-x-x-|-x-x-x-x---x---x---x---x-x-x-----|
A|-7-7-7-7----7----7----7-7-7----7-7-7-|-6-6-6-6---6---6---6---6-6-6-4h6-|
E|-------------------------------------|---------------------------------|



Verse 2, part 2: (distorted sound)  "Bang your head and jump..."

   C#m                               B
e|---------------------------------|---------------------------------|
B|-------------------------5---5---|---------------------------------|
G|-------6-----6-----6-----6---6---|-------6-----6-----6-----6---6---|
D|-4h6---6-----6-----6-----6---6---|-4-----4-----4-----4-----4---4---|
A|-----4-4-4-4-4-4-4-4-4-4-4-4-4-4-|-2-2-2-2-2-2-2-2-2-2-2-2-2-2-2-2-|
E|---------------------------------|---------------------------------|
 |
 |
e|---------------------------------|---------------------------------|
B|---------------------------------|-------4-----4-----4-----4---4---|
G|-------6-----6-----6-----6---6---|-4-----4-----4-----4-----4---4---|
D|-6h7---6-----6-----6-----6---6---|-4-----4-----4-----4-----4---4---|
A|-----4-4-4-4-4-4-4-4-4-4-4-4-4-4-|-2-2-2-2-2-2-2-2-2-2-2-2-2-2-2-2-|
E|---------------------------------|---------------------------------|



   A                                 B
e|---------------------------------|-------------------------------------------------|
B|---------------------------------|-------------------------------------------------|
G|-6-----6-----6-----6-----6---6---|-4-----4-----4---11p9----------------------------|
D|-2-----2-----2-----2-----2---2---|-4-----4-----4--------11-11p9--------------------|
A|-0-0-0-0-0-0-0-0-0-0-0-0-0-0-0-0-|-2-2-2-2-2-2-2----------------11-11p9------------|
E|---------------------------------|--------------------------------------12-12p11-9-|
 |
 |
e|---------------------------------|-------------------------------------------------|
B|-5-----5-----5-----5-----5---5---|-------------------------------------------------|
G|-2-----2-----2-----2-----2---2---|-4-----4-----4---8p6-----------------------------|
D|-2-----2-----2-----2-----2---2---|-4-----4-----4--------7--7p6---------------------|
A|-0-0-0-0-0-0-0-0-0-0-0-0-0-0-0-0-|-2-2-2-2-2-2-2----------------7--7p6-------------|
E|---------------------------------|--------------------------------------9--9p7--4--|



Chorus 2:


   E                      B                    A                      B
e|----------------------|--------------------|----------------------|---------------------------|
B|----------------------|--------------------|----------5---------5-|---------------------------|
G|----------------------|--------------------|-------4/6-6~~---4/6--|---------------------------| 
D|----------------------|-4-----4/-9~~---4/9-|-2--------------------|-4-----4/9~--9-9-9-9-7-7-6-|
A|-2--------------------|-2---2--------2-----|-0---0---------0------|-2---2---------------------|
E|-0---0-3/-12~~-0-3/12\|--------------------|----------------------|---------------------------|
 |
 |
e|----------------------|--------------------|----------------------|---------------------------|
B|----------------------|--------------------|----------------------|---------------------------|
G|----------------------|-4--------------4---|-2---------------2----|-4-------------------------| 
D|-2---------------2----|-4--------------4---|-2---------------2----|-4-----------6-6-6-6-4-4-2-|
A|-2---------------2----|-2--------------2---|-0---------------0----|-2-------------------------|
E|-0---------------0----|-2--------------2---|----------------------|---------------------------|



   E                      B                    A                      B
e|----------------------|--------------------|----------------------|---------------------|
B|----------------------|--------------------|----------5---------5-|---------------------|
G|----------------------|--------------------|-------4/6-6~~---4/6--|-4--------4----------| 
D|----------------------|-4-----4/-9~~---4/9-|-2--------------------|-4--------4----------|
A|-2--------------------|-2---2--------2-----|-0---0---------0------|-2--------2----------|
E|-0---0-3/-12~~-0-3/12\|--------------------|----------------------|----------2----------|
 |
 |
e|----------------------|--------------------|----------------------|---------------------|
B|----------------------|--------------------|----------------------|---------------------|
G|-8-8h9-8-8-8h9-8-8h9--|-8-8h9-8-8-8h9-8-8h9|-8-8h9-8-8-8h9-8-8h9--|-8-8h9-8-8-8h9-8-8h9-| 
D|--9---9-9-9---9-9-----|--9---9-9-9---9-9---|--9---9-9-9---9-9-----|--9---9-9-9---9-9----|
A|----------------------|--------------------|----------------------|---------------------|
E|----------------------|--------------------|----------------------|---------------------|
  P.M. ______   ___      P.M.  _____   ___    P.M.  _____   ___      P.M.  _____   ___




Bridge: "Don't waste your time..."


   E                                      G#                              
e|-12-----12-----12-----12-----12-----12|-11------11------11------11------11------11-|
B|----9------9------9------9------9-----|----9-------9-------9-------9-------9-------|
G|------9------9------9------9------9---|------11------11------11------11------11----|
D|--------------------------------------|--------------------------------------------|
A|--------------------------------------|--------------------------------------------|
E|--------------------------------------|--------------------------------------------|
 |
 |               
e|--------------------------------------|--------------------------------------------|
B|--------------------------------------|-4------------------------------------------|
G|--------------------------------------|-5------------------------------------------| 
D|-2------------------------------------|-6------------------------------------------|
A|-2------------------------------------|-6------------------------------------------|
E|-0------------------------------------|-4------------------------------------------|
    

                                                      
   C#m              B                   A                              
e|-9-----9-----9----9------9------9---|-9------9------9----9------9------9----|
B|---9-----9-----9----12-----12-----12|---10-----10-----10---10-----10-----10-|
G|-----9-----9-----------9------9-----|------9------9-----------9------9------|
D|------------------------------------|---------------------------------------|
A|------------------------------------|---------------------------------------|
E|------------------------------------|---------------------------------------|
 |
 |               
e|------------------------------------|---------------------------------------|
B|----------4h5-----------------------|---------------------2-----------------|
G|--------6-----6-------------6-----6-|-2-------------------2-----------------| 
D|------6---------6-------4-----4-----|-2-------------------2-----------------|
A|-4-----------------2------2-----2---|-0-------------------0-----------------|
E|------------------------------------|---------------------------------------|
  (let ring)


   E                                      G#                              
e|-12-----12-----12-----12-----12-----12|--11------11------11------11------11------11---|
B|----9------9------9------9------9-----|-----9-------9-------9-------9-------9---------|
G|------9------9------9------9------9---|-------11------11------11------11------11------|
D|--------------------------------------|-----------------------------------------------|
A|--------------------------------------|-----------------------------------------------|
E|--------------------------------------|-----------------------------------------------|
 |
 |               
e|--------------------------------------|-----------------------------------------------|
B|--------------------------------------|-----------------------------------------------|
G|--------------------------------------|-----------------------------------------------| 
D|--------------------------------------|-----------------------------------------------|
A|---2-2-2-2-2-2-2-2-2-2-2-2-2-2-2-2----|-6--6--6--6--6--6--6--6--6--6--6--6--6--6--6--6|
E|---0-0-0-0-0-0-0-0-0-0-0-0-0-0-0-0----|-4--4--4--4--4--4--4--4--4--4--4--4--4--4--4--4|
  P.M.__________________________________________________________________________________    


                                                      
   C#m              B                   A                              
e|-9-----9-----9----9------9------9---|-9------9------9----9------9------9---|
B|---9-----9-----9----12-----12-----12|---10-----10-----10---10-----10-----10|
G|-----9-----9-----------9------9-----|------9------9-----------9------9-----|
D|------------------------------------|--------------------------------------|
A|------------------------------------|--------------------------------------|
E|------------------------------------|--------------------------------------|
 |
 |               
e|------------------------------------|--------------------------------------|
B|------------------------------------|--------------------------------------|
G|------------------------------------|--------------------------------------| 
D|--6-6-6-6-6-6-6-6-4-4-4-4-4-4-4-4---|---2-2-2-2-2-2-2-2-2-2-2-2-2-2-2-2----|
A|--4-4-4-4-4-4-4-4-2-2-2-2-2-2-2-2---|---0-0-0-0-0-0-0-0-0-0-0-0-0-0-0-0----|
E|------------------------------------|--------------------------------------|
  P.M.________________________________________________________________________



   B
e|------------------------------------|--------------------------------------|
B|------------------------------------|--------------------------------------|
G|-4----------------------------------|-4------------------------------------|
D|-4----------------------------------|-4------------------------------------|
A|-2----------------------------------|-2------------------------------------|
E|------------------------------------|-2------------------------------------|
 |
 |               
e|------------------------------------|--------------------------------------|
B|-2----------------------------------|-4------------------------------------|
G|-4----------------------------------|-4------------------------------------|
D|-4----------------------------------|-4------------------------4-4-4-4-4-4-|
A|-2----------------------------------|-2------------------------2-2-2-2-2-2-|
E|------------------------------------|--------------------------------------|
                                                              P.M.__________


Solo:

   C#                                            
e|-------------------------9h11p9-------------------9h11p9-13p9---|
B|-9h10p9------9h10p9------------------9h10p9------9------9----9--|
G|-------10--10------10--10------10--10------10--10-------------10|
D|---------11----------11----------11----------11-----------------|
A|----------------------------------------------------------------|
E|----------------------------------------------------------------|
 |(sweep picking)
 |               
e|----------------------------------------------------------------|
B|--6-----------------------------------------------6-------6-h-7-|
G|--6-----------6-----------6-----------6-----------6-------6-----|
D|--6-----------6-----------6-----------6-----------6-------6-----|
A|--4-------4---4-------4---4-------4---4---4---4---4---4---4-----|
E|----------------------------------------------------------------|
           P.M.        ___         ___     _______     ___


   C#                                            
e|-------9h11p9----------9h11p9----------13h16p13----------13h18p13----|
B|-----13------13------13------13------13--------13------13--------13--|
G|---13----------13--13----------13--13------------13--13------------13|
D|-11--------------11---------------x----------------15----------------|
A|---------------------------------15----------------------------------|
E|---------------------------------------------------------------------|
 |(sweep picking)
 |               
e|---------------------------------------------------------------------|
B|--6--------------------------------------------------6-------6-h-7---|
G|--6------------6------------6------------6-----------6-------6-------|
D|--6------------6------------6------------6-----------6-------6-------|
A|--4--------4---4--------4---4--------4---4---4---4---4---4---4-------|
E|---------------------------------------------------------------------|
            P.M.         ___          ___     _______     ___


   A                                               F#m                  A           B
e|-16b(17)------\12----\7--11h12h14p12p11--------|-----------------------------------11h12p11-----|
B|----------------------------------------12-----|----------------/12\10------------x--------12--x|
G|-------------------------------------------11~~|----------/9-8-9-------9-8h9p8---x-----------13-|
D|-----------------------------------------------|------------------------------9-----------------|
A|-----------------------------------------------|-------------------------------11---------------|
E|-----------------------------------------------|------------------------------------------------|
 |
 |               
e|-----------------------------------------------|------------------------------------------------|
B|-5---5-----5---4---4---2-----2-----------------|------------------------------------------------|
G|-2---2-----2---2---2---2-----2-----------------|---------------------2------------4-------------|
D|-2---2-----2---2---2---2-----2-----------------|-4----4--------4-----2-----2------4--------4----|
A|-0---0-0-0-0-0-0-----0------------0---0--------|-4----4--------4-----0-----0--0---2-----2--2--2-|
E|-----------------------------------------------|-2----2--2--2--2--2-----------------------------|
         P.M.  _       _           _______                 _____    __          __        __   __



 "Imma sing it one more time..."
 

   C#m                          A      B             E
e|-12----12----12----12-----11---9---|---------------------------------|
B|----9-----9-----9-----9------------|-12---12---12-9-----9---9---9/12-|
G|------9-----9-----9-----9----9---9-|---8-8--8-8-------9---9---9------|
D|-----------------------------------|---------------------------------|
A|-----------------------------------|---------------------------------|
E|-----------------------------------|---------------------------------|
 |
 |               
e|-----------------------------------|---------------------------------|
B|--5----------5---------------------|---------------------------------|
G|--6----------6--------------6--2---|-4-------------------------------|
D|--6----------6--------------6--2---|-4----------4--2--------2--------|
A|--4----------4-----------------0---|-2----------2--2--------2--------|
E|-----------------------------------|---------------0--------0--------|
                                               


   F#                                                                      (chorus)
e|-----------------14--------------|--------------12-14--------------14/19|--
B|-11~~-------11/14--14------------|------------12-----/16p0-7p0-5/12-----|17~~
G|---------------------15----------|----------13--------------------------|--
D|-----------------------16----9h11|-/14-11-14----------------------------|--
A|-------------------------16\9----|----0---------------------------------|--
E|---------------------------------|--------------------------------------|--
 |
 |               
e|-----------------2---------------|--------------------------------------|
B|-2-----------------------2-------|--------------------------------------|
G|-3-------------------------------|-2-----------------4------------------|
D|-4-------------------------------|-2-----------------4------------------|
A|-4-------------------------------|-0-----------------2------------------|
E|-2-------------------------------|--------------------------------------|



Chorus 3:


   E                      B                    A                      B
e|----------------------|--------------------|----------------------|---------------------------|
B|----------------------|--------------------|----------5---------5-|---------------------------|
G|----------------------|--------------------|-------4/6-6~~---4/6--|---------------------------| 
D|----------------------|-4-----4/-9~~---4/9-|-2--------------------|-4-----4/9~--9-9-9-9-7-7-6-|
A|-2--------------------|-2---2--------2-----|-0---0---------0------|-2---2---------------------|
E|-0---0-3/-12~~-0-3/12\|--------------------|----------------------|---------------------------|
 |
 |
e|----------------------|--------------------|----------------------|---------------------------|
B|----------------------|--------------------|----------------------|---------------------------|
G|----------------------|-4--------------4---|-2---------------2----|-4-------------------------| 
D|-2---------------2----|-4--------------4---|-2---------------2----|-4-----------6-6-6-6-4-4-2-|
A|-2---------------2----|-2--------------2---|-0---------------0----|-2-------------------------|
E|-0---------------0----|-2--------------2---|----------------------|---------------------------|



   E                                 B
e|---------------------------------|--------------------|
B|---------------------------------|--------------------|
G|---------------------------------|-4------------------|
D|-2-----2-----2---2-----2-----2---|-4------------------|
A|-2-----2-----2---2-----2-----2---|-2------------------|
E|-0-0-0-0-0-0-0-0-0-0-0-0-0-0-0-0-|-2------------------|
 |   P.M.  ___   _   ___   ___   _  P.M.  _____   ___
 |
e|---------------------------------|--------------------|
B|---------------------------------|--------------------|
G|---------------------------------|-8-8h9-8-8-8h9-8-8h9| 
D|-2-----2-----2---2-----2-----2---|--9---9-9-9---9-9---|
A|-2-----2-----2---2-----2-----2---|--------------------|
E|-0-0-0-0-0-0-0-0-0-0-0-0-0-0-0-0-|--------------------|
     P.M.  ___   _   ___   ___   _  P.M.  _____   ___    



   A                     B
e|---------------------|----------------------|
B|---------------------|-----------------/10p9|
G|-8-8h9-8-8-8h9-8-8h9-|-8-8h9-8-8-8h9-8------| 
D|--9---9-9-9---9-9----|--9---9-9-9---9-9-----|
A|---------------------|----------------------|
E|---------------------|----------------------|
 |
 |
e|---------------------|----------------------|
B|---------------------|----------------------|
G|-4-4h6-4-4-4h6-4-4h6-|-4-4h6-4-4-4h6-4-4h6--|
D|--6---6-6-6---6-6----|--6---6-6-6---6-6-----|
A|---------------------|----------------------|
E|---------------------|----------------------|
  P.M.  _____   ___     P.M.  _____   ___



Outro: (crunch sound)


   E                   B                   C#m                 B
e|-------------------|-------------------|-------------------|-------------------|
B|--9~~--------------|-/12~~-------12/14-|-\7------5-----/4--|-------------------|
G|-------------------|-------------------|------------------4|-------------------|
D|-------------------|-------------------|-------------------|-4~~--------\2--4--|
A|-------------------|-------------------|-------------------|-------------------|
E|-------------------|-------------------|-------------------|-------------------|
 |
 |               
e|-------------------|-------------------|-------------------|-------------------|
B|-------------------|-------------------|-------------------|-------------------|
G|-------------------|-------------------|-------------------|-------------------|
D|-2-----------------|-------------------|-------------------|------------/6--4--|
A|-2-----------------|-/6~~--------------|-\4----------------|-/6----------------|
E|-0-----------------|-------------------|-------------------|-------------------|


(clean sound)
                     
   E                                 B
e|-0-----0-----0-----0-----0-----0-|---0-----0-----0-----0-----0-----|
B|---0-----0-----0-----0-----0-----|-----0-----0-----0-----0-------0-|
G|-----9-----9-----9-----9-----9---|-8-----8-----8-----8-----8---8---| 
D|---------------------------------|---------------------------------|
A|---------------------------------|---------------------------------|
E|---------------------------------|---------------------------------|
 |
 |
e|---------------------------------|---------------------------------|
B|---------------------------------|---------------------------------|
G|---------------------------------|---------------------------------| 
D|-2~~-----------------------------|---------------------------------|
A|---------------------------------|---------------------------------|
E|---------------------------------|---------------------------------|



   A                                       B                                 
e|---------------------------------------|--------------------------|
B|----0------0------0------0------0------|-----0-----0-------0------|
G|------9------9------9------9------9----|---8-----8------8---------| 
D|-11-----11-----11-----11-----11-----11-|-9-----9-----9------------|
A|---------------------------------------|--------------------------|
E|---------------------------------------|--------------------------|
 |
 |
e|---------------------------------------|--------------------------|
B|---------------------------------------|--------------------------|
G|---------------------------------------|--------------------------| 
D|---------------------------------------|--------------------------|
A|---------------------------------------|--------------------------|
E|---------------------------------------|--------------------------|
comments
We did not receive enough feedback on this tab! Please rate:
1 2 3 4 5
I want to post or [tab]
guest
You may want to rate the tab now too:
select rating
Please do not post tabs as comments. Select "correction" instead!