Oops, an error
Loading. Please wait.

Easy Fight Rambling Bass Tab

384 views 1 this week
no commentswrite comment
1 2 3 4 5
please rate
Autoscroll
+/-
esc
set tempo
stop
Contributor
WARNING: You are trying to view
                                    content from Ultimate-Guitar.com
                                    in an unauthorized application,
                                    which is prohibited.

                                    Please use an official Ultimate
                                    Guitar Tabs application for iPhone,
                                    iPad or Android to access legitimate
                                    chords, guitar, bass, and drum tabs
                                    from Ultimate-Guitar.com database.

                                    Type "ultimate guitar tabs" in Apple
                                    App Store's or Android Market's
                                    search to find the application.
#----------------------------------PLEASE NOTE---------------------------------#
#This file is the author's own work and represents their interpretation of the #
#song. You may only use this file for private study, scholarship, or research. #
#------------------------------------------------------------------------------#

EASY FIGHT RAMBLING (Bassline)
As recorded by X Japan


	



Gtr I (E A D G B E) - 'Vocals'
Gtr II (E A D G) - 'Picked Bass'

  Q=200
 4/4
  Gtr II
  W          W          W          H    E S S Q
|----------|----------|----------|------------2--|
|----------|----------|----------|----------2----|
|----------|----------|----------|---------------|
|----------|----------|----------|---------------|


  E. S E. S E. S E. S   E. S E. S E. S Q
|---------------------|----------------0--|
|-2--2-1--1-0--0-1--1-|-2--2-0--0-2--2----|
|---------------------|-------------------|
|---------------------|-------------------|


  E. S E. S E. S E. S   E. S E. S Q  Q
|---------------------|-2--0-2--0-------|
|-2--2-1--1-0--0-2--2-|-----------4-----|
|---------------------|--------------5--|
|---------------------|-----------------|


  Q  Q  Q  Q    Q  Q  Q  Q    Q  Q  Q  Q    Q  Q  H
|-------------|-------------|-------------|------------|
|-------------|----5--------|-------------|------------|
|-7--6--5--6--|-7-----7-----|-7--6--5--7--|------------|
|-------------|----------7--|-------------|-5--3--2----|


  Q  Q  Q  Q    Q  Q  Q  Q    Q  Q  Q  Q    Q  Q  E. S E S S
|-------------|----0--------|-------------|-2--0--------------|
|-2--1--0--1--|-2-----2-----|-2--1--0--2--|-------0--0-----2--|
|-------------|----------2--|-------------|-------------------|
|-------------|-------------|-------------|-------------------|


  +Q   Q  H      H    E S S E S S   Q  Q  H
|--------------|----------7-----9-|-9----------|
|-(2)----------|------------------|------------|
|--------------|------------------|------------|
|--------------|------------------|------------|


  S S S S S S S S E.  S E S  S    +Q   Q  E. S Q    H    E. S E S S
|-7-7---7-7-7---7-9------------|------------------|-----------------|
|------------------------------|------------------|-----------------|
|------------------------------|------------------|-0---------------|
|--------------------10-----12-|-(12)--0--0--0-0--|------3--2-----0-|


  Q  Q  E. S Q    H    E. S E S S   +Q   Q  E. S Q    H    E. S E S S
|---------------|-----------------|-----------------|-----------------|
|---------------|-----------------|-----------------|-----------------|
|---------------|-3----5--6-----7-|-(7)-------------|---------------3-|
|-0--0--0--0-0--|-----------------|------0--0--0-0--|-5----3--2-------|


  +E. S Q  Q  Q    Q  Q  Q  Q    E. S E. S E. S E. S   E. S E. S E. S Q
|-----5-4--------|-------------|---------------------|-------------------|
|----------5-----|----5--4-----|---------------------|-------------------|
|-(3)---------3--|-5--------5--|---------------------|----------------7--|
|----------------|-------------|-0--0-0--0-0--0-0--0-|-0--0-0--0-0--0----|


  Gtr I
  W                     W
|---------------------|-----------------------|
|---------------------|-----------------------|
|---------------------|-----------------------|
|---------------------|-----------------------|
|---------------------|-----------------------|
|---------------------|-----------------------|
|
| Gtr II
| E. S E. S E. S E. S   E. S E. S E S S E S S
|---------------------|-----------------------|
|---------------------|-----------------------|
|---------------------|---------5-----3-----5-|
|-0--0-0--0-0--0-0--0-|-0--0-0----------------|


   Q    E. S E. S +E. S   +E. S E. S E. S  E. S
|-------2--2------------|-----------------------|
|------------5--7-(7)-8-|-(8)-9-7--7-5--5--7--7-|
|-----------------------|-----------------------|
|-----------------------|-----------------------|
|-----------------------|-----------------------|
|-----------------------|-----------------------|
|
| +E. S Q    E. S  Q       Q    E. S E. S +E. S
|-----------------------|-----------------------|
|-----------------------|-----------------------|
|-(5)-5-5----5--5--5----|--5----5--5-3--4-(4)-5-|
|-----------------------|-----------------------|


  +H       E  S S E. S   E. S E. S E. S E. S
|----------------------|---------------------|
|-(7)------------------|-7--7-7--7-7--7-7--7-|
|----------------------|---------------------|
|---------------7-7--7-|---------------------|
|----------------------|---------------------|
|----------------------|---------------------|
|
| +E. S Q  E.   S Q      E. S Q    Q    Q
|----------------------|---------------------|
|----------------------|---------------------|
|-(5)-5-5--5----5-5----|-5--5----------------|
|----------------------|------0----3----4----|


  +Q    Q    E. S +E. S   +Q    Q    E. S +Q
|-------5----3--5-(5)-5-|-(5)---5----3--5-(5)----|
|-(7)---5---------------|------------------------|
|-----------------------|------------------------|
|-----------------------|------------------------|
|-----------------------|------------------------|
|-----------------------|------------------------|
|
|  E. S E. S E. S  E. S    E. S E. S E. S  E. S
|-----------------------|------------------------|
|-----------------------|------------------------|
|-----------------------|------------------------|
|--5--5-5--5-5--5--5--5-|--5--5-5--5-5--5--5--5--|


  Q    Q    E. S +Q      Q    Q     H
|------5----3--5-(5)---|-8----9----10----------|
|----------------------|-----------------------|
|----------------------|-----------------------|
|----------------------|-----------------------|
|----------------------|-----------------------|
|----------------------|-----------------------|
|
| E. S E. S E. S  E. S   E. S E. S  E. S E S S
|----------------------|-----------------------|
|----------------------|-----------------------|
|----------------------|------------5--3-----5-|
|-5--5-5--5-5--5--5--5-|-5--5-5--5-------------|


   Q     E.  S E. S +E. S   +E. S E. S E. S E.   S
|-------------------------|------------------------|
|-----------------7-(7)-8-|-(8)-9-7--7-5--5-7----7-|
|-------11--11-9----------|------------------------|
|-------------------------|------------------------|
|-------------------------|------------------------|
|-------------------------|------------------------|
|
| +E. S  Q     E. S  Q       Q    E. S E. S E  S S
|-------------------------|------------------------|
|-------------------------|------------------------|
|-(5)-5--5-----5--5--5----|--5----5--5-3--4------5-|
|-------------------------|------------------------|


  +H       E  S S E. S    E. S E. S E. S  E. S
|----------------------|--5--5-5--5-5--5--5--5-|
|-(7)------------------|-----------------------|
|----------------------|-----------------------|
|---------------7-7--7-|-----------------------|
|----------------------|-----------------------|
|----------------------|-----------------------|
|
| +E. S Q  E.   S Q      +E. S Q    E. S +E. S
|----------------------|-----------------------|
|----------------------|-----------------------|
|-(5)-5-5--5----5-5----|-(5)-5-5----5--7-(7)-8-|
|----------------------|-----------------------|


  +Q    Q  +H         Q   Q   E.  S  E.  S
|-(5)---------------|-----------------------|
|-------6--(6)------|-----6---8--10-10--10--|
|-------------------|-----------------------|
|-------------------|-----------------------|
|-------------------|-----------------------|
|-------------------|-----------------------|
|
| +E. S Q   E. S Q    Q   Q   Q      Q
|-------------------|----10-----------------|
|-------------------|--------10-------------|
|-(8)-8-8---8--8-8--|-8--------------8------|
|-------------------|-----------------------|


   Q     Q     H           Q   S S E  Q   Q
|------------------------|-----------12--10--|
|-12----------12---------|-----------13--12--|
|-------12---------------|-------------------|
|------------------------|----14-------------|
|------------------------|-------------------|
|------------------------|-------------------|
|
|  E. S  E. S  E. S E. S   Q   Q      Q   Q
|------------------------|-------------------|
|------------------------|------------5---3--|
|------------------------|-------------------|
|--3--3--3--3--3--3-3--3-|-3-----------------|


   W                  +H        +Q     +S  E S
|--9---------------|--(9)-------(9)----(9)-----|
|-10---------------|-(10)------(10)---(10)-----|
|------------------|-------------------------9-|
|------------------|---------------------------|
|------------------|---------------------------|
|------------------|---------------------------|
|
|  E. S Q  E. S Q      E. S Q    E. S   Q
|------------------|---------------------------|
|------------------|---------------------------|
|--0--0-0--0--0-0--|---0--0-0----0--0---0------|
|------------------|---------------------------|


  Gtr II
  E. S Q  E. S Q    Q  Q  E. S E S S   +Q   Q  E. S Q    E. S Q  E. S Q
|-----------------|------------------|-----------------|------------------|
|-----------------|-3-----5--6-----7-|-(7)-------------|------------------|
|-0--0-0--0--0-0--|----3-------------|-----------------|------------------|
|-----------------|------------------|------5--5--5-5--|-5--5-5--5--5-5---|


  Gtr I
  W                              W                Q     E. S E. S +E. S
|------------------------------|----------------|------------------------|
|------------------------------|----------------|-------7--7-5--7-(7)-8--|
|------------------------------|----------------|------------------------|
|------------------------------|----------------|------------------------|
|------------------------------|----------------|------------------------|
|------------------------------|----------------|------------------------|
|
| Gtr II
| E. S S S S S S S S S S S S S   Q  Q  Q  E S S   E S S Q    E. S  Q
|------------------------------|----------------|------------------------|
|------------------------------|----------------|------------------------|
|------------------------------|--------------5-|-----5-5----5--5--5-----|
|-5--5-5-5---5-5-5---5-5-5---5-|-5--------------|------------------------|


  +E. S E. S E. S  E. S   +H       E  S S E. S
|-----------------------|----------------------|
|-(8)-9-7--7-5--5--7--7-|-(7)------------------|
|-----------------------|----------------------|
|-----------------------|---------------7-7--7-|
|-----------------------|----------------------|
|-----------------------|----------------------|
|
|  Q    E. S E. S +E. S   +E. S Q  E.   S Q
|-----------------------|----------------------|
|-----------------------|----------------------|
|--5----5--5-3--4-(4)-5-|-(5)-5-5--5----5-5----|
|-----------------------|----------------------|


  E. S E. S E. S E. S   +Q    Q    E. S +E. S
|---------------------|-------5----3--5-(5)-5--|
|-7--7-7--7-7--7-7--7-|-(7)---5----------------|
|---------------------|------------------------|
|---------------------|------------------------|
|---------------------|------------------------|
|---------------------|------------------------|
|
| E. S Q    Q    Q       E. S E. S E. S  E. S
|---------------------|------------------------|
|---------------------|------------------------|
|-5--5----------------|------------------------|
|------0----3----4----|--5--5-5--5-5--5--5--5--|


  +Q    Q    E. S +Q      Q    Q    E. S +Q
|-(5)---5----3--5-(5)---|------5----3--5-(5)---|
|-----------------------|----------------------|
|-----------------------|----------------------|
|-----------------------|----------------------|
|-----------------------|----------------------|
|-----------------------|----------------------|
|
|  E. S E. S E. S  E. S   E. S E. S E. S  E. S
|-----------------------|----------------------|
|-----------------------|----------------------|
|-----------------------|----------------------|
|--5--5-5--5-5--5--5--5-|-5--5-5--5-5--5--5--5-|


  Q    Q     H             Q     E.  S E. S +E. S
|-8----9----10----------|--------------------------|
|-----------------------|-----------------7-(7)-8--|
|-----------------------|-------11--11-9-----------|
|-----------------------|--------------------------|
|-----------------------|--------------------------|
|-----------------------|--------------------------|
|
| E. S E. S  E. S E S S   +E. S  Q     E. S  Q
|-----------------------|--------------------------|
|-----------------------|--------------------------|
|------------5--3-----5-|-(5)-5--5-----5--5--5-----|
|-5--5-5--5-------------|--------------------------|


  +E. S E. S E. S E.   S   +H       E  S S E. S
|------------------------|----------------------|
|-(8)-9-7--7-5--5-7----7-|-(7)------------------|
|------------------------|----------------------|
|------------------------|---------------7-7--7-|
|------------------------|----------------------|
|------------------------|----------------------|
|
|  Q    E. S E. S E  S S   +E. S Q  E.   S Q
|------------------------|----------------------|
|------------------------|----------------------|
|--5----5--5-3--4------5-|-(5)-5-5--5----5-5----|
|------------------------|----------------------|


   E. S E. S E. S  E. S   +Q    Q  +H
|--5--5-5--5-5--5--5--5-|-(5)---------------|
|-----------------------|-------6--(6)------|
|-----------------------|-------------------|
|-----------------------|-------------------|
|-----------------------|-------------------|
|-----------------------|-------------------|
|
| +E. S Q    E. S +E. S   +E. S Q   E. S Q
|-----------------------|-------------------|
|-----------------------|-------------------|
|-(5)-5-5----5--7-(7)-8-|-(8)-8-8---8--8-8--|
|-----------------------|-------------------|


  Q   Q   E.  S  E.  S    Q   Q   H
|----------------------|----------------|
|-----6---8--10-10--10-|-12------12-----|
|----------------------|-----10---------|
|----------------------|----------------|
|----------------------|----------------|
|----------------------|----------------|
|
| Q   Q   Q      Q        Q   Q   Q  Q
|----10----------------|----------------|
|--------10------------|----------------|
|-8--------------8-----|-10----------5--|
|----------------------|-----10---3-----|


  H       Q       E  S  S    +Q   Q  Q    Q
|-------------------------|-------------------|
|-------------------------|-------9--9----9---|
|----------------------11-|-(11)--9-----------|
|----------------------12-|-(12)--------------|
|-------------------------|-------------------|
|-------------------------|-------------------|
|
| Q  E. S S S S S E.    S    +Q   Q  E. S Q
|-------------------------|-------------------|
|----5--5-5-5---5-5-------|-------------------|
|-----------------------5-|--(5)--7-----------|
|-3-----------------------|----------0--0-0---|


  E  S S E. S E. S E. S    Q..       S  +Q    Q
|-----------------------|-10--------10-(10)------|
|-------------7--7-9--9-|-10---------9--(9)--10--|
|------9-9--9-----------|-11---------9--(9)---9--|
|-----------------------|--------------------11--|
|-----------------------|------------------------|
|-----------------------|------------------------|
|
| E.   S Q    Q    Q       Q    E S  S  +Q    Q
|-----------------------|------------------------|
|-----------------------|------------------------|
|-----------------------|---------------------0--|
|-0----0-0----7----8----|-10--------10-(10)------|


   +H       Q  E S S   +Q   Q  Q    Q
|--------------------|------------------|
|-(10)-------------7-|-(7)--9--9----9---|
|--(9)-------------7-|-(7)--9-----------|
|-(11)---------------|------------------|
|--------------------|------------------|
|--------------------|------------------|
|
|  +E. S Q  Q  E S S   +Q   Q  E. S Q
|--------------------|------------------|
|--------------------|------------------|
|--(0)-0----0------5-|-(5)--7-----------|
|--------3-----------|---------0--0-0---|


  Q    E. S E. S E. S    Q..       S  +Q    Q
|----------------4--4-|-10--------10-(10)------|
|-----------5--5------|-10---------9--(9)--10--|
|------7--7-----------|-11---------9--(9)---9--|
|---------------------|--------------------11--|
|---------------------|------------------------|
|---------------------|------------------------|
|
| E. S Q    Q    Q       Q    E S  S  +Q    Q
|---------------------|------------------------|
|---------------------|------------------------|
|---------------------|---------------------0--|
|-0--0-0----7----8----|-10--------10-(10)------|


   +H       Q  E S S   +Q   Q  Q    Q
|--------------------|-----------------|
|-(10)-------------7-|-(7)--9--9----9--|
|--(9)-------------7-|-(7)--9----------|
|-(11)---------------|-----------------|
|--------------------|-----------------|
|--------------------|-----------------|
|
|  +E. S Q  Q  E S S   +Q   Q  E. S Q
|--------------------|-----------------|
|--------------------|-----------------|
|--(0)-0----0------5-|-(5)--7----------|
|--------3-----------|---------0--0-0--|


  E  S S E. S E. S E. S    Q..       S  +Q    Q
|-----------------------|-10--------10-(10)------|
|-------------7--7-9--9-|-10---------9--(9)--10--|
|------9-9--9-----------|-11---------9--(9)---9--|
|-----------------------|--------------------11--|
|-----------------------|------------------------|
|-----------------------|------------------------|
|
| E.   S Q    Q    Q       Q    E S  S  +Q    Q
|-----------------------|------------------------|
|-----------------------|------------------------|
|-----------------------|---------------------0--|
|-0----0-0----7----8----|-10--------10-(10)------|


   +H       Q  E S S   +Q   Q  Q    Q
|--------------------|------------------|
|-(10)-------------7-|-(7)--9--9----9---|
|--(9)-------------7-|-(7)--9-----------|
|-(11)---------------|------------------|
|--------------------|------------------|
|--------------------|------------------|
|
|  +E. S Q  Q  E S S   +Q   Q  E. S Q
|--------------------|------------------|
|--------------------|------------------|
|--(0)-0----0------5-|-(5)--7-----------|
|--------3-----------|---------0--0-0---|


  E  S S E. S E. S E. S    Q..       S  +Q    Q
|-----------------------|-10--------10-(10)------|
|-------------7--7-9--9-|-10---------9--(9)--10--|
|------9-9--9-----------|-11---------9--(9)---9--|
|-----------------------|--------------------11--|
|-----------------------|------------------------|
|-----------------------|------------------------|
|
| E.   S Q    Q    Q       Q    E S  S  +Q    Q
|-----------------------|------------------------|
|-----------------------|------------------------|
|-----------------------|---------------------0--|
|-0----0-0----7----8----|-10--------10-(10)------|


   +H       H           Q    Q  Q    Q
|--------------------|-------------------|
|-(10)---------------|-------9--7----9---|
|--(9)---------------|-------------------|
|-(11)---------------|-------------------|
|--------------------|-------------------|
|--------------------|-------------------|
|
|  +E. S Q  Q  E S S   +E. S Q  E. S Q
|--------------------|-------------------|
|--------------------|-------------------|
|--(0)-0----0------3-|-(3)-3-3--3--3-3---|
|--------3-----------|-------------------|


   Q    Q  Q    Q    H       H
|------------------|-7-------5-------|
|-10----9--7----9--|-----------------|
|------------------|-----------------|
|------------------|-----------------|
|------------------|-----------------|
|------------------|-----------------|
|
|  E. S Q  E. S Q    E. S Q  E. S Q
|------------------|-----------------|
|------------------|--------------2--|
|--3--3-3--3--3-3--|-----------------|
|------------------|-0--0-0--0--0----|


  Q..     S +H             Q    Q  Q    Q
|-4-------5-(5)---------|-------4--2----4---|
|-----------------------|-------------------|
|-----------------------|-------------------|
|-----------------------|-------------------|
|-----------------------|-------------------|
|-----------------------|-------------------|
|
| E.  S Q    E. S E S S   +E. S Q  E. S Q
|------------0----------|-------------------|
|---------------4-------|-------------------|
|---------------------3-|-(3)-3-3--3--3-3---|
|-0---0-0---------------|-------------------|


  Q    Q  Q    Q    H       H         H       Q..       S   +H      Q  Q
|-5----4--2----4--|-7-------5-------|-4-------2-----------|------------4---|
|-----------------|-----------------|-------------------5-|-(5)-----5------|
|-----------------|-----------------|---------------------|----------------|
|-----------------|-----------------|---------------------|----------------|
|-----------------|-----------------|---------------------|----------------|
|-----------------|-----------------|---------------------|----------------|
|
| E. S Q  E. S Q    E. S Q  E. S Q    E. S Q  E.  S E S S   +Q   Q  Q  Q
|-----------------|-----------------|---------0---------5-|-(5)------------|
|-----------------|--------------2--|-------------4-------|------5---------|
|-3--3-3--3--3-3--|-----------------|---------------------|---------3--4---|
|-----------------|-0--0-0--0--0----|-0--0-0--------------|----------------|


  H     Q  Q     Q   Q  Q  Q     H      H        W
|-2-----------|--5---5--5--9--|--7------------|--9-------------------|
|-------3--3--|---------------|---------9-----|-10-------------------|
|-------7-----|---------------|---------------|----------------------|
|-------------|---------------|---------------|----------------------|
|-------------|---------------|---------------|----------------------|
|-------------|---------------|---------------|----------------------|
|
| Q  Q  Q  Q     Q   Q  Q  Q     Q   Q  Q  Q     E. S E. S E. S E. S
|-------7--9--|-10------------|---------------|----------------------|
|----7--------|-----10--------|---------------|----------------------|
|-5-----------|---------8--9--|-10------------|----------------------|
|-------------|---------------|-----10--3--4--|--5--5-5--5-5--5-5--5-|


  Q    Q     Q     Q       H         H
|------7-----9----10----|--9---------7---------|
|------9----10----12----|-10---------9---------|
|-----------------------|----------------------|
|-----------------------|----------------------|
|-----------------------|----------------------|
|-----------------------|----------------------|
|
| E. S E. S  E. S  E. S    E. S E. S E. S E. S
|-----------------------|----------------------|
|-----------------------|----------------------|
|------------3--3--5--5-|--7--7-7--7-7--7-7--7-|
|-5--5-5--5-------------|----------------------|


  H         H           H         H
|-5---------4---------|-5-------------------|
|-7---------5---------|-7-------------------|
|---------------------|---------------------|
|---------------------|---------------------|
|---------------------|---------------------|
|---------------------|---------------------|
|
| E. S E. S E. S E. S   E. S E. S E. S E. S
|---------------------|---------------------|
|---------------------|---------------------|
|-7--7-7--7-7--7-6--6-|-5--5-5--5-5--5-5--5-|
|---------------------|---------------------|


  Q    Q    Q    Q      H         H
|------5----4----5----|-7-------------------|
|------7----5----7----|-9-------------------|
|---------------------|---------------------|
|---------------------|---------------------|
|---------------------|---------------------|
|---------------------|---------------------|
|
| E. S E. S E. S E. S   E. S E. S E. S E. S
|---------------------|---------------------|
|---------------------|---------------------|
|-5--5-5--5-5--5-5--5-|-7--7-7--7-7--7-7--7-|
|---------------------|---------------------|


  H         E. S +E.    S    +H         H
|-5---------5--7-(7)----9-|--(9)-------------------|
|-7---------7--9-(9)---10-|-(10)-------------------|
|-------------------------|------------------------|
|-------------------------|------------------------|
|-------------------------|------------------------|
|-------------------------|------------------------|
|
| E. S E. S E. S  E  S  S    +E. S E. S E. S E. S
|-------------------------|------------------------|
|-------------------------|------------------------|
|-----------------------0-|--(0)-0-0--0-0--0-0--0--|
|-0--0-0--0-0--3----------|------------------------|


  Q    Q     Q     Q       H         H
|------7-----9----10----|--9---------7---------|
|------9----10----12----|-10---------9---------|
|-----------------------|----------------------|
|-----------------------|----------------------|
|-----------------------|----------------------|
|-----------------------|----------------------|
|
| E. S E. S  E. S  E. S    E. S E. S E. S E. S
|-----------------------|----------------------|
|-----------------------|----------------------|
|-0--0-0--0--3--3--5--5-|--7--7-7--7-7--7-7--7-|
|-----------------------|----------------------|


  H         Q..      S   Q    Q    Q    Q
|-5---------4--------4-|-5----5---------5----|
|-7---------5--------5-|-6----7---------7----|
|----------------------|---------------------|
|----------------------|---------------------|
|----------------------|---------------------|
|----------------------|---------------------|
|
| E. S E. S E.  S E. S   E. S E. S E. S E. S
|----------------------|---------------------|
|----------------------|---------------------|
|----------------------|---------------------|
|-0--0-0--0-0---0-0--0-|-1--1-1--1-1--1-1--1-|


  H         Q..      S    Q     Q     +H
|-3---------7--------7-|--9-----9-----(9)--------|
|-3---------9--------9-|-10----10----(10)--------|
|----------------------|--9-----9-----(9)--------|
|----------------------|-------------------------|
|----------------------|-------------------------|
|----------------------|-------------------------|
|
| E. S E. S E.  S E. S    E. S  E. S   E. S E. S
|----------------------|-------------------------|
|----------------------|-------------------------|
|----------------------|--0--0--0--0---0--0-0--0-|
|-3--3-3--3-3---3-3--3-|-------------------------|


  W                      Q     Q     +H
|---------------------|--9-----9-----(9)--------|
|---------------------|-10----10----(10)--------|
|---------------------|--9-----9-----(9)--------|
|---------------------|-------------------------|
|---------------------|-------------------------|
|---------------------|-------------------------|
|
| E. S E. S E. S E. S    E. S  E. S   E. S E. S
|---------------------|-------------------------|
|---------------------|-------------------------|
|----------------2--2-|--0--0--0--0---0--0-0--0-|
|-3--3-2--2-3--3------|-------------------------|


   E.  S  +E.  S  +E.  S  +E. S   +Q     Q     +H
|-----------------------------8-|-(8)---------------------|
|-10--10-(10)-10-(10)-10-(10)---|-------10----(10)--------|
|-------------------------------|-------------------------|
|-------------------------------|-------------------------|
|-------------------------------|-------------------------|
|-------------------------------|-------------------------|
|
|  E.  S   E.  S   E.  S   E. S    E. S  E. S   E. S E. S
|-------------------------------|-------------------------|
|-------------------------------|-------------------------|
|--------------------------2--2-|--0--0--0--0---0--0-0--0-|
|--3---3---2---2---3---3--------|-------------------------|


  W                      Q     Q     +H
|---------------------|--9-----9-----(9)--------|
|---------------------|-10----10----(10)--------|
|---------------------|--9-----9-----(9)--------|
|---------------------|-------------------------|
|---------------------|-------------------------|
|---------------------|-------------------------|
|
| E. S E. S E. S E. S    E. S  E. S   E. S E. S
|---------------------|-------------------------|
|---------------------|-------------------------|
|----------------2--2-|--0--0--0--0---0--0-0--0-|
|-3--3-2--2-3--3------|-------------------------|


  Q    Q    E. S +E. S   +H      H      W                      W
|----------------------|--------------|----------------------|------|
|-8----9----9--9-(9)---|--------------|----------------------|------|
|--------------------9-|-(9)----------|----------------------|------|
|----------------------|--------------|----------------------|------|
|----------------------|--------------|----------------------|------|
|----------------------|--------------|----------------------|------|
|
| E. S E. S E. S  Q       Q   Q  H      H    S S S S S S S S   W
|----------------------|--------------|--------------7-8---9-|------|
|----------------------|--------------|------7-8---9---------|------|
|-----------------5----|--------------|----------------------|------|
|-3--3-2--2-3--3-------|--0-----------|----------------------|-0----|


  Gtr II
   Q   Q   Q   Q    Q  Q  Q  Q    Q  Q  Q  S S E   Q  Q  Q  Q
|-14--------------|-------------|----------------|--------------|
|-----12--14------|-------------|----------------|--------------|
|-------------12--|-------------|----------0-----|--------------|
|-----------------|----0-----0--|----0-----------|----0-----0---|


   E.  S  +S  E. Q  E S S   +E. S E. S E. S E. S
|-------------------------|----------------------|
|-------------------------|----------------------|
|-11--10-(10)-9--7--------|----------------------|
|-----------------------5-|-(5)-5-5--5-5--5-5--5-|


  E. S E. S E. S E. S   +E. S E. S E. S E. S
|---------------------|-----------------------|
|---------------------|-----------------------|
|-----------0--0-2--3-|-(3)-3-2--2-3--3-4--4--|
|-5--5-3--3-----------|-----------------------|


  E. S E. S E. S E. S   +E. S E. S E. S E. S
|---------------------|----------------------|
|---------------------|----------------------|
|-5--5----------------|----------------------|
|------2--2-3--3-4--5-|-(5)-5-5--5-5--5-5--5-|


  E. S E. S E. S E. S   +E. S E. S E. S E. S
|---------------------|----------------------|
|---------------------|-------2--2-3--3-4--4-|
|----------------2--3-|-(3)-3----------------|
|-5--5-0--0-3--3------|----------------------|


  E. S E. S E. S E. S   E. S E. S E. S E. S
|---------------------|---------------------|
|-5--5----------------|---------------------|
|-----------5--5------|-0--0-0--0-0--0-0--0-|
|------7--7------3--3-|---------------------|


  E. S E. S E. S E. S   +E. S E. S E. S E. S
|---------------------|----------------------|
|---------------------|----------------------|
|-0--0------0--0-2--3-|-(3)-3-2--2-3--3-4--4-|
|------3--3-----------|----------------------|


  E. S E. S E. S E. S   E. S E. S E. S E. S
|---------------------|---------------------|
|---------------------|---------------------|
|-5--5----------------|---------------------|
|------2--2-3--3-4--4-|-5--5-5--5-5--5-5--5-|


  E. S E. S E. S E. S   +E. S E. S E. S E. S
|---------------------|----------------------|
|---------------------|-------2--2-3--3-4--4-|
|------3--3-0--0----3-|-(3)-3----------------|
|-5--5-----------3----|----------------------|


  E. S E. S E. S Q    E. S E. S E. S E. S
|------4--4-5--5-7--|---------------------|
|-5--5--------------|---------------------|
|-------------------|---------------------|
|-------------------|-8--8-8--8-8--8-8--8-|


   E.  S  E.  S  E.  S  E.  S    E.  S  E.  S E. S E. S
|-----------------------------|-------------------------|
|-----------------------------|-10--10------------------|
|-----------------------------|--------10--10-----------|
|-10--10-10--10-10--10-10--10-|---------------8--8-8--8-|


   E.  S  E.  S  E.  S  E.  S
|-----------------------------|
|-----------------------------|
|-----------------------------|
|-10--10-10--10-10--10-10--10-|


   E.  S  E.  S E. S E. S    E.  S  E.  S  E.  S  E.  S
|-10--10------------------|-----------------------------|
|--------10--10-----------|--------10--10---------------|
|---------------8--8-8--8-|-10--10--------10--10-10--10-|
|-------------------------|-----------------------------|


  Gtr I
   W
|---------------------------------------------|
|---------------------------------------------|
|---------------------------------------------|
|---------------------------------------------|
|---------------------------------------------|
|---------------------------------------------|
|
| Gtr II
|  S  S S  S  S  S S  S  S  S S  S  S  S S  S
|---------------------------------------------|
|---------------------------------------------|
|-12-12---12-12-12---12-12-12---12-12-12---12-|
|---------------------------------------------|


   H    Q  E S  S    +Q    Q  Q    Q
|-----------------|-------------------|
|---------------7-|--(7)---9--9----9--|
|---------------7-|--(7)---9----------|
|-----------------|-------------------|
|-----------------|-------------------|
|-----------------|-------------------|
|
|  H    Q  E S  S    +Q    Q  E. S Q
|-----------------|-------------------|
|-----------------|-------------------|
|-12--------------|-------------------|
|--------------10-|-(10)--12--0--0-0--|


  E  S S E. S E. S E. S    Q..       S  +Q    Q
|-----------------------|-10--------10-(10)------|
|-------------7--7-9--9-|-10---------9--(9)--10--|
|------9-9--9-----------|-11---------9--(9)---9--|
|-----------------------|--------------------11--|
|-----------------------|------------------------|
|-----------------------|------------------------|
|
| E.   S Q    Q    Q       Q    E S  S  +Q    Q
|-----------------------|------------------------|
|-----------------------|------------------------|
|-------------2----3----|--5---------5--(5)------|
|-0----0-0--------------|---------------------5--|


   +H       Q  E S S   +Q   Q  Q    Q
|--------------------|------------------|
|-(10)-------------7-|-(7)--9--9----9---|
|--(9)-------------7-|-(7)--9-----------|
|-(11)---------------|------------------|
|--------------------|------------------|
|--------------------|------------------|
|
|  +E. S Q  Q  E S S   +Q   Q  E. S Q
|--------------------|------------------|
|--------------------|------------------|
|-----------0------5-|-(5)--7-----------|
|--(5)-5-3-----------|---------0--0-0---|


  Q    E. S E. S E. S    Q..       S  +Q    Q
|----------------4--4-|-10--------10-(10)------|
|-----------5--5------|-10---------9--(9)--10--|
|------7--7-----------|-11---------9--(9)---9--|
|---------------------|--------------------11--|
|---------------------|------------------------|
|---------------------|------------------------|
|
| E. S Q    Q    Q       Q    E S  S  +Q    Q
|---------------------|------------------------|
|---------------------|------------------------|
|---------------------|---------------------0--|
|-0--0-0----7----8----|-10--------10-(10)------|


   +H       Q  E S S   +Q   Q  Q    Q
|--------------------|-----------------|
|-(10)-------------7-|-(7)--9--9----9--|
|--(9)-------------7-|-(7)--9----------|
|-(11)---------------|-----------------|
|--------------------|-----------------|
|--------------------|-----------------|
|
|  +E. S Q  Q  E S S   +Q   Q  E. S Q
|--------------------|-----------------|
|--------------------|-----------------|
|--(0)-0----0------5-|-(5)--7----------|
|--------3-----------|---------0--0-0--|


  E  S S E. S E. S E. S    Q..       S  +Q    Q
|-----------------------|-10--------10-(10)------|
|-------------7--7-9--9-|-10---------9--(9)--10--|
|------9-9--9-----------|-11---------9--(9)---9--|
|-----------------------|--------------------11--|
|-----------------------|------------------------|
|-----------------------|------------------------|
|
| E.   S Q    Q    Q       Q    E S  S  +Q    Q
|-----------------------|------------------------|
|-----------------------|------------------------|
|-----------------------|---------------------0--|
|-0----0-0----7----8----|-10--------10-(10)------|


   +H       Q  E S S   +Q   Q  Q    Q
|--------------------|------------------|
|-(10)-------------7-|-(7)--9--9----9---|
|--(9)-------------7-|-(7)--9-----------|
|-(11)---------------|------------------|
|--------------------|------------------|
|--------------------|------------------|
|
|  +E. S Q  Q  E S S   +Q   Q  E. S Q
|--------------------|------------------|
|--------------------|------------------|
|--(0)-0----0------5-|-(5)--7-----------|
|--------3-----------|---------0--0-0---|


  E  S S E. S E. S E. S    Q..       S  +Q    Q
|-----------------------|-10--------10-(10)------|
|-------------7--7-9--9-|-10---------9--(9)--10--|
|------9-9--9-----------|-11---------9--(9)---9--|
|-----------------------|--------------------11--|
|-----------------------|------------------------|
|-----------------------|------------------------|
|
| E.   S Q    Q    Q       Q    E S  S  +Q    Q
|-----------------------|------------------------|
|-----------------------|------------------------|
|-----------------------|---------------------0--|
|-0----0-0----7----8----|-10--------10-(10)------|


   +H       H           Q    Q  Q    Q
|--------------------|-------------------|
|-(10)---------------|-------9--7----9---|
|--(9)---------------|-------------------|
|-(11)---------------|-------------------|
|--------------------|-------------------|
|--------------------|-------------------|
|
|  +E. S Q  Q  E S S   +E. S Q  E. S Q
|--------------------|-------------------|
|--------------------|-------------------|
|--(0)-0----0------3-|-(3)-3-3--3--3-3---|
|--------3-----------|-------------------|


   Q    Q  Q    Q    H       H
|------------------|-7-------5-------|
|-10----9--7----9--|-----------------|
|------------------|-----------------|
|------------------|-----------------|
|------------------|-----------------|
|------------------|-----------------|
|
|  E. S Q  E. S Q    E. S Q  E. S Q
|------------------|-----------------|
|------------------|--------------2--|
|--3--3-3--3--3-3--|-----------------|
|------------------|-0--0-0--0--0----|


  Q..     S +H             Q    Q  Q    Q
|-4-------5-(5)---------|-------4--2----4---|
|-----------------------|-------------------|
|-----------------------|-------------------|
|-----------------------|-------------------|
|-----------------------|-------------------|
|-----------------------|-------------------|
|
| E.  S Q    E. S E S S   +E. S Q  E. S Q
|------------0----------|-------------------|
|---------------4-------|-------------------|
|---------------------3-|-(3)-3-3--3--3-3---|
|-0---0-0---------------|-------------------|


  Q    Q  Q    Q    H       H         H       Q..       S   +H      Q  Q
|-5----4--2----4--|-7-------5-------|-4-------2-----------|------------4---|
|-----------------|-----------------|-------------------5-|-(5)-----5------|
|-----------------|-----------------|---------------------|----------------|
|-----------------|-----------------|---------------------|----------------|
|-----------------|-----------------|---------------------|----------------|
|-----------------|-----------------|---------------------|----------------|
|
| E. S Q  E. S Q    E. S Q  E. S Q    E. S Q  E.  S E S S   +Q   Q  Q  Q
|-----------------|-----------------|---------0---------5-|-(5)------------|
|-----------------|--------------2--|-------------4-------|------5---------|
|-3--3-3--3--3-3--|-----------------|---------------------|---------3--4---|
|-----------------|-0--0-0--0--0----|-0--0-0--------------|----------------|


  H     Q  Q     Q   Q  Q  Q     H      H        W
|-2-----------|--5---5--5--9--|--7------------|--9-------------------|
|-------3--3--|---------------|---------9-----|-10-------------------|
|-------7-----|---------------|---------------|----------------------|
|-------------|---------------|---------------|----------------------|
|-------------|---------------|---------------|----------------------|
|-------------|---------------|---------------|----------------------|
|
| Q  Q  Q  Q     Q   Q  Q  Q     Q   Q  Q  Q     E. S E. S E. S E. S
|-------7--9--|-10------------|---------------|----------------------|
|----7--------|-----10--------|---------------|----------------------|
|-5-----------|---------8--9--|-10------------|----------------------|
|-------------|---------------|-----10--3--4--|--5--5-5--5-5--5-5--5-|


  Q    Q     Q     Q       H         H
|------7-----9----10----|--9---------7---------|
|------9----10----12----|-10---------9---------|
|-----------------------|----------------------|
|-----------------------|----------------------|
|-----------------------|----------------------|
|-----------------------|----------------------|
|
| E. S E. S  E. S  E. S    E. S E. S E. S E. S
|-----------------------|----------------------|
|-----------------------|----------------------|
|------------3--3--5--5-|--7--7-7--7-7--7-7--7-|
|-5--5-5--5-------------|----------------------|


  H         H           H         H
|-5---------4---------|-5-------------------|
|-7---------5---------|-7-------------------|
|---------------------|---------------------|
|---------------------|---------------------|
|---------------------|---------------------|
|---------------------|---------------------|
|
| E. S E. S E. S E. S   E. S E. S E. S E. S
|---------------------|---------------------|
|---------------------|---------------------|
|-7--7-7--7-7--7-6--6-|-5--5-5--5-5--5-5--5-|
|---------------------|---------------------|


  Q    Q    Q    Q      H         H
|------5----4----5----|-7-------------------|
|------7----5----7----|-9-------------------|
|---------------------|---------------------|
|---------------------|---------------------|
|---------------------|---------------------|
|---------------------|---------------------|
|
| E. S E. S E. S E. S   E. S E. S E. S E. S
|---------------------|---------------------|
|---------------------|---------------------|
|-5--5-5--5-5--5-5--5-|-7--7-7--7-7--7-7--7-|
|---------------------|---------------------|


  H         E. S +E.    S    +H         H
|-5---------5--7-(7)----9-|--(9)-------------------|
|-7---------7--9-(9)---10-|-(10)-------------------|
|-------------------------|------------------------|
|-------------------------|------------------------|
|-------------------------|------------------------|
|-------------------------|------------------------|
|
| E. S E. S E. S  E  S  S    +E. S E. S E. S E. S
|-------------------------|------------------------|
|-------------------------|------------------------|
|-----------------------0-|--(0)-0-0--0-0--0-0--0--|
|-0--0-0--0-0--3----------|------------------------|


  Q    Q     Q     Q       H         H
|------7-----9----10----|--9---------7---------|
|------9----10----12----|-10---------9---------|
|-----------------------|----------------------|
|-----------------------|----------------------|
|-----------------------|----------------------|
|-----------------------|----------------------|
|
| E. S E. S  E. S  E. S    E. S E. S E. S E. S
|-----------------------|----------------------|
|-----------------------|----------------------|
|-0--0-0--0--3--3--5--5-|--7--7-7--7-7--7-7--7-|
|-----------------------|----------------------|


  H         Q..      S   H.             Q
|-5---------4--------4-|-5--------------5----|
|-7---------5--------5-|-6--------------6----|
|----------------------|---------------------|
|----------------------|---------------------|
|----------------------|---------------------|
|----------------------|---------------------|
|
| E. S E. S E.  S E. S   E. S E. S E. S E. S
|----------------------|---------------------|
|----------------------|---------------------|
|----------------------|---------------------|
|-0--0-0--0-0---0-0--0-|-1--1-1--1-1--1-1--1-|


  H         Q..      S    W
|-3---------7--------7-|--9-------------------|
|-3---------8--------8-|-10-------------------|
|----------------------|----------------------|
|----------------------|----------------------|
|----------------------|----------------------|
|----------------------|----------------------|
|
| E. S E. S E.  S E. S    E. S E. S E. S E. S
|----------------------|----------------------|
|----------------------|----------------------|
|----------------------|--0--0-0--0-0--0-0--0-|
|-3--3-3--3-3---3-3--3-|----------------------|


  Q    Q     Q     Q       H         H
|------7-----9----10----|--9---------7---------|
|------9----10----12----|-10---------9---------|
|-----------------------|----------------------|
|-----------------------|----------------------|
|-----------------------|----------------------|
|-----------------------|----------------------|
|
| E. S E. S  E. S  E. S    E. S E. S E. S E. S
|-----------------------|----------------------|
|-----------------------|----------------------|
|-0--0-0--0--3--3--5--5-|--7--7-7--7-7--7-7--7-|
|-----------------------|----------------------|


  H         H           H         H
|-5---------4---------|-5-------------------|
|-7---------5---------|-7-------------------|
|---------------------|---------------------|
|---------------------|---------------------|
|---------------------|---------------------|
|---------------------|---------------------|
|
| E. S E. S E. S E. S   E. S E. S E. S E. S
|---------------------|---------------------|
|---------------------|---------------------|
|-7--7-7--7-7--7-6--6-|-5--5-5--5-5--5-5--5-|
|---------------------|---------------------|


  Q    Q    Q    Q      H         H
|------5----4----5----|-7-------------------|
|------7----5----7----|-9-------------------|
|---------------------|---------------------|
|---------------------|---------------------|
|---------------------|---------------------|
|---------------------|---------------------|
|
| E. S E. S E. S E. S   E. S E. S E. S E. S
|---------------------|---------------------|
|---------------------|---------------------|
|-5--5-5--5-5--5-5--5-|-7--7-7--7-7--7-7--7-|
|---------------------|---------------------|


  H         E. S +E.    S    +H         H
|-5---------5--7-(7)----9-|--(9)------------------|
|-7---------7--9-(9)---10-|-(10)------------------|
|-------------------------|-----------------------|
|-------------------------|-----------------------|
|-------------------------|-----------------------|
|-------------------------|-----------------------|
|
| E. S E. S E. S  E  S  S    +E. S E. S E. S E. S
|-------------------------|-----------------------|
|-------------------------|-----------------------|
|-----------------------0-|--(0)-0-0--0-0--0-0--0-|
|-0--0-0--0-0--3----------|-----------------------|


  Q    Q     Q     Q       H         H
|------7-----9----10----|--9---------7----------|
|------9----10----12----|-10---------9----------|
|-----------------------|-----------------------|
|-----------------------|-----------------------|
|-----------------------|-----------------------|
|-----------------------|-----------------------|
|
| E. S E. S  E. S  E. S    E. S E. S E. S E. S
|-----------------------|-----------------------|
|-----------------------|-----------------------|
|-0--0-0--0--3--3--5--5-|--7--7-7--7-7--7-7--7--|
|-----------------------|-----------------------|


  H         Q..      S   Q    Q    Q    Q
|-5---------4--------4-|-5----5---------5----|
|-7---------5--------5-|-6----7---------7----|
|----------------------|---------------------|
|----------------------|---------------------|
|----------------------|---------------------|
|----------------------|---------------------|
|
| E. S E. S E.  S E. S   E. S E. S E. S E. S
|----------------------|---------------------|
|----------------------|---------------------|
|----------------------|---------------------|
|-0--0-0--0-0---0-0--0-|-1--1-1--1-1--1-1--1-|


  H         Q..      S    Q     Q     +H
|-3---------7--------7-|--9-----9-----(9)--------|
|-3---------9--------9-|-10----10----(10)--------|
|----------------------|--9-----9-----(9)--------|
|----------------------|-------------------------|
|----------------------|-------------------------|
|----------------------|-------------------------|
|
| E. S E. S E.  S E. S    E. S  E. S   E. S E. S
|----------------------|-------------------------|
|----------------------|-------------------------|
|----------------------|--0--0--0--0---0--0-0--0-|
|-3--3-3--3-3---3-3--3-|-------------------------|


  W                      Q     Q     +H
|---------------------|--9-----9-----(9)--------|
|---------------------|-10----10----(10)--------|
|---------------------|--9-----9-----(9)--------|
|---------------------|-------------------------|
|---------------------|-------------------------|
|---------------------|-------------------------|
|
| E. S E. S E. S E. S    E. S  E. S   E. S E. S
|---------------------|-------------------------|
|---------------------|-------------------------|
|----------------2--2-|--0--0--0--0---0--0-0--0-|
|-3--3-2--2-3--3------|-------------------------|


   E.  S  +E.  S  +E.  S  +E. S   +Q     Q     +H
|-----------------------------8-|-(8)---------------------|
|-10--10-(10)-10-(10)-10-(10)---|-------10----(10)--------|
|-------------------------------|-------------------------|
|-------------------------------|-------------------------|
|-------------------------------|-------------------------|
|-------------------------------|-------------------------|
|
|  E.  S   E.  S   E.  S   E. S    E. S  E. S   E. S E. S
|-------------------------------|-------------------------|
|-------------------------------|-------------------------|
|--------------------------2--2-|--0--0--0--0---0--0-0--0-|
|--3---3---2---2---3---3--------|-------------------------|


  W                      Q     Q     +H
|---------------------|--9-----9-----(9)--------|
|---------------------|-10----10----(10)--------|
|---------------------|--9-----9-----(9)--------|
|---------------------|-------------------------|
|---------------------|-------------------------|
|---------------------|-------------------------|
|
| E. S E. S E. S E. S    E. S  E. S   E. S E. S
|---------------------|-------------------------|
|---------------------|-------------------------|
|----------------2--2-|--0--0--0--0---0--0-0--0-|
|-3--3-2--2-3--3------|-------------------------|


  S  S E   S  S E   S  E S E S S    W
|--------------------------------|-10-------------------|
|--------------------------------|-12-------------------|
|-9--------9--------9----9-----9-|-10-------------------|
|--------------------------------|-12-------------------|
|--------------------------------|----------------------|
|--------------------------------|----------------------|
|
| E.     S E.     S E.   S Q        E. S E. S E. S E. S
|--------------------------------|----------------------|
|--------------------------------|----------------------|
|-------------------0----0-1-----|--2--2-2--2-2--2-2--2-|
|-3------3-2------2--------------|----------------------|


   H         H            W
|------------8---------|-10-------------------|
|-10---------8---------|-12-------------------|
|--9---------9---------|-10-------------------|
|-10-------------------|-12-------------------|
|----------------------|----------------------|
|----------------------|----------------------|
|
|  E. S E. S E. S E. S    E. S E. S E. S E. S
|----------------------|----------------------|
|----------------------|----------------------|
|--0--0-0--0-4--4-4--4-|--2--2-2--2-2--2-2--2-|
|----------------------|----------------------|


   H         H            W
|----------------------|-10-------------------|
|------------8---------|-12-------------------|
|--9---------9---------|-10-------------------|
|-10-------------------|-12-------------------|
|----------------------|----------------------|
|----------------------|----------------------|
|
|  E. S E. S E. S E. S    E. S E. S E. S E. S
|----------------------|----------------------|
|----------------------|----------------------|
|--0--0-0--0-4--4-4--4-|--2--2-2--2-2--2-2--2-|
|----------------------|----------------------|


   H         H            W
|------------8---------|-10-------------------|
|-10---------8---------|-12-------------------|
|--9---------9---------|-10-------------------|
|-10-------------------|-12-------------------|
|----------------------|----------------------|
|----------------------|----------------------|
|
|  E. S E. S E. S E. S    E. S E. S E. S E. S
|----------------------|----------------------|
|----------------------|----------------------|
|--0--0-0--0-4--4-4--4-|--2--2-2--2-2--2-2--2-|
|----------------------|----------------------|


   H         H           S  S E   Q  H
|------------8---------|---------------------|
|-10---------8---------|---------------------|
|--9---------9---------|-9-------------------|
|-10-------------------|---------------------|
|----------------------|---------------------|
|----------------------|---------------------|
|
|  E. S E. S E. S E. S   E.     S Q  E. S Q
|----------------------|---------------------|
|----------------------|---------------------|
|--0--0-0--0-4--4-4--4-|---------------------|
|----------------------|-0------0-0--0--0-0--|


  Gtr II
  H    E. S E S S   +E. S Q  E. S Q    H    E. S E S S   +Q   Q  E. S Q
|-----------------|------------------|-----------------|-----------------|
|-----------------|------------------|-----------------|-----------------|
|-----------------|------------------|-3----5--6-----7-|-(7)-------------|
|-5----3--2-----0-|-(0)-0-0--0--0-0--|-----------------|------0--0--0-0--|


  H    E. S E S S   Q  Q  E. S Q    H    E. S E S S   +E. S E. S E. S E. S
|-----------------|---------------|-----------------|----------------------|
|-----------------|---------------|------0--1-----2-|-(2)-2-1--1-0--0-2--2-|
|-----------------|---------------|-0---------------|----------------------|
|-5----3--2-----0-|-0--0--0--0-0--|-----------------|----------------------|


  E. S E. S E. S E. S   E. S E. S E. S E. S
|---------------------|---------------------|
|------5--5------7--7-|---------------------|
|---------------------|-7--7-6--6-5--5-7--7-|
|-3--3------5--5------|---------------------|


  E. S  E.  S  E.  S  E.  S    E.  S  E.  S  E.  S  E.  S
|---------------------------|-----------------------------|
|------10--10--------12--12-|-----------------------------|
|---------------------------|-----------------------------|
|-8--8--------10--10--------|-12--12-11--11-10--10-12--12-|


  E. S E. S E. S E. S   E. S E. S E. S E. S   S S S S S S S S S S S S S S S S
|---------------------|-9--9-9--9-9--9-9--9-|-9-7-----9-7-----9-7-----9-7------|
|------5--5------7--7-|---------------------|-------9-------9-------9-------9--|
|---------------------|---------------------|----------------------------------|
|-3--3------5--5------|---------------------|----------------------------------|


  S S S S S S S S S S S S S S S S   S S S S S S S S S S S S S S S S
|---------------------------------|---------------------------------|
|---------------------------------|---------------------------------|
|-7-7---7-6-6---6-5-5---5-6-6---6-|-7-7---7-6-6---6-5-5---5-6-6---6-|
|---------------------------------|---------------------------------|


  S S S S S S S S S S S S S S S S   S S S S S S S S S S S S S S S S
|-9-9---9-8-8---8-7-7---7-8-8---8-|-9-9---9-8-8---8-7-7---7-8-8---8-|
|---------------------------------|---------------------------------|
|---------------------------------|---------------------------------|
|---------------------------------|---------------------------------|


  W          Q  Q  H      +W           +W
|-9--------|------------|------------|--------|
|----------|------------|------------|--------|
|----------|-7-----7----|-(7)--------|-(7)----|
|----------|-------0----|-(0)--------|-(0)----|


  +W
|--------*|
|--------*|
|-(7)----*|
|-(0)----*|



Duration Legend
---------------
W - whole; H - half; Q - quarter; E - 8th; S - 16th; T - 32nd; X - 64th; a - acciaccatura
+ - note tied to previous; . - note dotted; .. - note double dotted
Uncapitalized letters represent notes that are staccato (1/2 duration)
Irregular groupings are notated above the duration line
Duration letters will always appear directly above the note/fret number it represents the
duration for.  Duration letters with no fret number below them represent rests.  Multi-
bar rests are notated in the form Wxn, where n is the number of bars to rest for.  Low
melody durations appear below the staff

Tablature Legend
----------------
 h   - hammer-on
 p   - pull-off
 b   - bend
 pb  - pre-bend
 r   - bend release (if no number after the r, then release immediately)
 /\  - slide into or out of (from/to "nowhere")
 s   - legato slide
 S   - shift slide
 - natural harmonic
[n]  - artificial harmonic
n(n) - tapped harmonic
 ~   - vibrato
 tr  - trill
 T   - tap
 TP  - trem. picking
 PM  - palm muting
\n/  - tremolo bar dip; n = amount to dip
 \n  - tremolo bar down
 n/  - tremolo bar up
/n\  - tremolo bar inverted dip
 =   - hold bend; also acts as connecting device for hammers/pulls
 <> - volume swell (louder/softer)
 x   - on rhythm slash represents muted slash
 o   - on rhythm slash represents single note slash

Misc Legend
-----------
 |  - bar
||  - double bar
||o - repeat start
o|| - repeat end
*|  - double bar (ending)
 :  - bar (freetime)
 $  - Segno
 &  - Coda
Tempo markers -  = BPM(8/16=s8/s16), where s8 = swing 8ths, s16 = swing 16ths

comments
We did not receive enough feedback on this tab! Please rate:
print report bad tab
1 2 3 4 5
I want to post or [tab]
guest
You may want to rate the tab now too:
select rating
Please do not post tabs as comments. Select "correction" instead!