Oops, an error
Loading. Please wait.

Easy Fight Rambling Tab

375 views 3 this week
no commentswrite comment
1 2 3 4 5
please rate
Autoscroll
+/-
esc
set tempo
stop
Contributor
WARNING: You are trying to view
                                    content from Ultimate-Guitar.com
                                    in an unauthorized application,
                                    which is prohibited.

                                    Please use an official Ultimate
                                    Guitar Tabs application for iPhone,
                                    iPad or Android to access legitimate
                                    chords, guitar, bass, and drum tabs
                                    from Ultimate-Guitar.com database.

                                    Type "ultimate guitar tabs" in Apple
                                    App Store's or Android Market's
                                    search to find the application.
#----------------------------------PLEASE NOTE---------------------------------#
#This file is the author's own work and represents their interpretation of the #
#song. You may only use this file for private study, scholarship, or research. #
#------------------------------------------------------------------------------#

EASY FIGHT RAMBLING
As recorded by X Japan


        



Gtr I (E A D G B E) - 'Guitar 1'
Gtr II (E A D G B E) - 'Guitar 2'
Gtr III (B E A D G B E) - 'Guitar 3'

  Q=200
 4/4
  Gtr I
  W          W          W          W
|----------|----------|----------|------|
|----------|----------|----------|------|
|----------|----------|----------|------|
|----------|----------|----------|------|
|----------|----------|----------|------|
|----------|----------|----------|------|


  W          H    E S  S  E.  S    +W            +W
|----------|----------15-19--24-|-(24)--------|-(24)----|
|----------|--------------------|-------------|---------|
|----------|----------12-16--21-|-(21)--------|-(21)----|
|----------|--------------------|-------------|---------|
|----------|--------------------|-------------|---------|
|----------|--------------------|-------------|---------|


  Gtr II
  W           H    E. S E S S   +W           H    E. S E S S
|----------|------------------|------------|-----------------|
|----------|-10----8--7-----5-|-(5)--------|------3--4-----5-|
|-9--------|--9----7--6-----4-|-(4)--------|-5----2--3-----4-|
|-9--------|--7----5--4-----2-|-(2)--------|-5----0--1-----2-|
|-7--------|------------------|------------|-3---------------|
|----------|------------------|------------|-----------------|
|
| Gtr III
| W           H    E. S E S S   +W           H    E. S E S S
|----------|------------------|------------|-----------------|
|----------|-10----8--7-----5-|-(5)--------|------3--4-----5-|
|-9--------|--9----7--6-----4-|-(4)--------|-5----2--3-----4-|
|-9--------|--7----5--4-----2-|-(2)--------|-5----0--1-----2-|
|-7--------|------------------|------------|-3---------------|
|----------|------------------|------------|-----------------|
|----------|------------------|------------|-----------------|


  +W           H    E. S E S S   +W           H    E. S E S S
|------------|-5----3----------|------------|-----------------|
|-(5)--------|-5----3--7-----5-|-(5)--------|------3--4-----5-|
|-(4)--------|-2----0--6-----4-|-(4)--------|-5----2--3-----4-|
|-(2)--------|---------4-----2-|-(2)--------|-5----0--1-----2-|
|------------|-----------------|------------|-3---------------|
|------------|-----------------|------------|-----------------|
|
| +W           H    E. S E S S   +W           H    E. S E S S
|------------|-5----3----------|------------|-----------------|
|-(5)--------|-5----3--7-----5-|-(5)--------|------3--4-----5-|
|-(4)--------|-2----0--6-----4-|-(4)--------|-5----2--3-----4-|
|-(2)--------|---------4-----2-|-(2)--------|-5----0--1-----2-|
|------------|-----------------|------------|-3---------------|
|------------|-----------------|------------|-----------------|
|------------|-----------------|------------|-----------------|


  Gtr I
   S  S S S Q  S S S S Q
|-------------------------|
|----------------------8--|
|-----------9----------7--|
|-----------9----------5--|
|-----------7-------------|
|--0--0---0----0-0---0----|
|
| Gtr II
| +Q        Q  H
|-------------------------|
|-(5)---------------------|
|-(4)---------------------|
|-(2)---------------------|
|-------------------------|
|-------------------------|
|
| Gtr III
| +Q        Q  H
|-------------------------|
|-(5)---------------------|
|-(4)---------------------|
|-(2)---------------------|
|-------------------------|
|-------------------------|
|-------------------------|


  S S S S E. S E S S E S S    S  S S S Q  S S S S Q
|---------5--3-------------|-----------3----------3---|
|---------5--3-----3-----5-|-----------3----------3---|
|------------0-----2-----4-|-----------0----------0---|
|---------7--------0-----2-|--------------------------|
|--------------------------|--------------------------|
|-0-0---0------------------|--0--0---0----0-0---0-----|
|
| H            E S S E S S   +Q        Q  H
|--------------------------|--------------------------|
|------------------3-----5-|-(5)----------------------|
|------------------2-----4-|-(4)----------------------|
|------------------0-----2-|-(2)----------------------|
|--------------------------|--------------------------|
|--------------------------|--------------------------|
|
| H            E S S E S S   +Q        Q  H
|--------------------------|--------------------------|
|------------------3-----5-|-(5)----------------------|
|------------------2-----4-|-(4)----------------------|
|------------------0-----2-|-(2)----------------------|
|--------------------------|--------------------------|
|--------------------------|--------------------------|
|--------------------------|--------------------------|


  Gtrs I, II           Gtr II
  S S S S S S S S E. S E S S   +W           H    E. S E S S
|----------------------------|------------|-5----3----------|
|-3-3---3-3-3---3-5--3-----5-|-(5)--------|-5----3--7-----5-|
|-2-2---2-2-2---2-4--2-----4-|-(4)--------|-2----0--6-----4-|
|-0-0---0-0-0---0-2--0-----2-|-(2)--------|---------4-----2-|
|----------------------------|------------|-----------------|
|----------------------------|------------|-----------------|
|
| Gtr III
| H               E. S E S S   +W           H    E. S E S S
|----------------------------|------------|-5----3----------|
|-----------------5--3-----5-|-(5)--------|-5----3--7-----5-|
|-----------------4--2-----4-|-(4)--------|-2----0--6-----4-|
|-----------------2--0-----2-|-(2)--------|---------4-----2-|
|----------------------------|------------|-----------------|
|----------------------------|------------|-----------------|
|----------------------------|------------|-----------------|


  Gtr I
   W           W                  W           H    Q    E S S
|------------|-----------------|------------|-----------------|
|------------|-----------------|------------|-----------------|
|------------|-----------------|------------|-----------------|
|------------|-----------------|------------|-----------------|
|------------|-----------------|------------|---------------3-|
|------------|-----------------|------------|-----------------|
|
| Gtr II
| +W           H    E. S E S S   +W           H    E. S E S S
|------------|-----------------|------------|-5----3----------|
|-(5)--------|------3--4-----5-|-(5)--------|-5----3--7-------|
|-(4)--------|-5----2--3-----4-|-(4)--------|-2----0--6-----5-|
|-(2)--------|-5----0--1-----2-|-(2)--------|---------4-------|
|------------|-3---------------|------------|-----------------|
|------------|-----------------|------------|---------------8-|
|
| Gtr III
| +W           H    E. S E S S   +W           H    E. S E S S
|------------|-----------------|------------|-5----3----------|
|-(5)--------|------3--4-----5-|-(5)--------|-5----3--7-----5-|
|-(4)--------|-5----2--3-----4-|-(4)--------|-2----0--6-------|
|-(2)--------|-5----0--1-----2-|-(2)--------|---------4-----2-|
|------------|-3---------------|------------|-----------------|
|------------|-----------------|------------|-----------------|
|------------|-----------------|------------|-----------------|


  +H.      Q    W          H        H            W
|-------------|----------|--------------------|------------------------------|
|-------------|----------|-5------------------|------------------------------|
|-------------|----------|-4------------------|------------------------------|
|----------2--|-0--------|-2------------------|------------------------------|
|-(3)---------|----------|--------------------|------------------------------|
|-------------|----------|--------------------|------------------------------|
|
| +H.      Q    W          Q  S E S S E S  Q     S E  S  S E  S  S E  S  Q
|-------------|----------|-----------------7--|--------------------------7---|
|-------------|----------|-----------------8--|--------------------------8---|
|-(5)------9--|-7--------|-9---------------7--|--------------------------7---|
|-------------|-0--------|-9------------------|------------------------------|
|----------7--|----------|-7------------------|------------------------------|
|-(8)---------|----------|----5---5-5---5-----|--5----5--5----5--5----5------|
|
| +H.      Q    W          Q  S E S S E S  Q     S E  S  S E  S  S E  S  Q
|----------3--|----------|--------------------|------------------------------|
|-(5)---------|-7--------|-5--------------12--|-------------------------12---|
|----------0--|----------|-4--------------12--|-------------------------12---|
|-(2)---------|-4--------|-2--------------12--|-------------------------12---|
|-------------|----------|----0---0-0---0-----|------------------------------|
|-------------|----------|--------------------|------------------------------|
|-------------|----------|--------------------|-10---10-10---10-10---10------|


  Gtr II
   S E  S  Q   S E  S  Q     S E  S  S E  S E S  S E S  S    +W
|----------7-----------7--|-------------------------------|---------|
|----------8-----------8--|-------------------------------|---------|
|----------7-----------7--|---------------7------5------7-|--(7)----|
|-------------------------|---------------7------5------7-|--(7)----|
|-------------------------|---------------5-------------5-|--(5)----|
|--5----5------5----5-----|--5----5--5-----------8--------|---------|
|
| Gtr III
|  S E  S  Q   S E  S  Q     S E  S  S E  S E S  S E S  S    +W
|-------------------------|-------------------------------|---------|
|---------12----------12--|-------------------------------|---------|
|---------12----------12--|-------------------------------|---------|
|---------12----------12--|--------------12-----10-----12-|-(12)----|
|-------------------------|--------------12-----10-----12-|-(12)----|
|-------------------------|--------------10------------10-|-(10)----|
|-10---10-----10---10-----|-10---10-10----------13--------|---------|


   H     E.  S  +E.    S    +W
|----------------------2-|--(2)--------|
|----------------------3-|--(3)--------|
|----------------------2-|--(2)--------|
|--5-----4---2--(2)----0-|--(0)--------|
|------------------------|-------------|
|------------------------|-------------|
|
|  H     E.  S  +S  E  S    +W
|------------------------|-------------|
|------------------------|-------------|
|--------9--10-(10)---11-|-(11)--------|
|-------10--11-(11)---12-|-(12)--------|
|-10----10--11-(11)---12-|-(12)--------|
|--------8---9--(9)---10-|-(10)--------|
|------------------------|-------------|


    Q   Q  Q  Q     E.  S  E.  S  E.  S  E.  S
|----------------|------------------------------|
|----------------|------------------------------|
|---0------------|------------------------------|
|----------------|------------------------------|
|----------------|--7---7--7---7--7---7--7---7--|
|-------0--3--4--|--5---5--5---5--5---5--5---5--|
|
|  +Q   Q  Q  Q     E.  S  E.  S  E.  S  E.  S
|----------------|------------------------------|
|----------------|------------------------------|
|-(11)-----------|------------------------------|
|-(12)-----------|------------------------------|
|-(12)-----------|------------------------------|
|-(10)--0--------|-12--12-12--12-12--12-12--12--|
|----------8--9--|-10--10-10--10-10--10-10--10--|


   Q      Q      E.  S +Q        E.  S  E.  S  E.  S  E.  S
|-----------------------------|-----------------------------|
|-----------------------------|-----------------------------|
|-----------------------------|-----------------------------|
|--7------5------7---7-(7)----|-----------------------------|
|-----------------------------|--7---7--7---7--7---7--7---7-|
|-----------------------------|--5---5--5---5--5---5--5---5-|
|
|  E.  S  E.  S  E.  S  E.  S    E.  S  E.  S  E.  S  E.  S
|-----------------------------|-----------------------------|
|-----------------------------|-----------------------------|
|-----------------------------|-----------------------------|
|-----------------------------|-----------------------------|
|-----------------------------|-----------------------------|
|-12--12-12--12-12--12-12--12-|-12--12-12--12-12--12-12--12-|
|-10--10-10--10-10--10-10--10-|-10--10-10--10-10--10-10--10-|


   Q      Q      E.  S  +E.  S    +W
|------------------------------|---------|
|----------------------------3-|--(3)----|
|----------------7---5--(5)--2-|--(2)----|
|--7------5------7---5--(5)--2-|--(2)----|
|----------------7---5--(5)--0-|--(0)----|
|----------------5---3--(3)----|---------|
|
|  E.  S  E.  S  E.  S  +E.  S    +W
|------------------------------|---------|
|------------------------------|---------|
|----------------------------7-|--(7)----|
|---------------12--10-(10)--7-|--(7)----|
|---------------12--10-(10)--7-|--(7)----|
|-12--12-12--12-12--10-(10)----|---------|
|-10--10-10--10-10---8--(8)-10-|-(10)----|


  Gtr I
    W                        W
|------------------------|-------------|
|------------------------|-------------|
|------------------------|-------------|
|------------------------|-------------|
|------------------------|-------------|
|------------------------|-------------|
|
| Gtr II
|   H      E.  S  +E.  S    +W
|----------------------2-|--(2)--------|
|----------------------3-|--(3)--------|
|---0------------------2-|--(2)--------|
|----------4---2--(2)--0-|--(0)--------|
|------------------------|-------------|
|------------------------|-------------|
|
| Gtr III
|  +H      E.  S  +E.  S    +W
|------------------------|-------------|
|------------------------|-------------|
|--(7)-----9--10-(10)-11-|-(11)--------|
|--(7)----10--11-(11)-12-|-(12)--------|
|--(7)----10--11-(11)-12-|-(12)--------|
|----------8---9--(9)-10-|-(10)--------|
|-(10)-------------------|-------------|


    W                        Q..         S +Q      Q
|------------------------|---5---------------------------|
|------------------------|---------------6-(6)-----------|
|------------------------|-------------------------5-----|
|------------------------|-------------------------------|
|------------------------|-------------------------------|
|------------------------|-------------------------------|
|
|   H      E.  S  +E.  S    +E.   S  E.  S  E.  S  E.  S
|----------2---4--(4)--5-|--(5)---5--5---5--5---5--5---5-|
|----------3---5--(5)--6-|--(6)---6--6---6--6---6--6---6-|
|---2------2---4--(4)--5-|--(5)---5--5---5--5---5--5---5-|
|----------0---2--(2)--3-|--(3)---3--3---3--3---3--3---3-|
|------------------------|-------------------------------|
|------------------------|-------------------------------|
|
|  +H      E.  S  +E.  S    +E.   S  E.  S  E.  S  E.  S
|------------------------|-------------------------------|
|------------------------|-------------------------------|
|-(11)----11--13-(13)-14-|-(14)--14-14--14-14--14-14--14-|
|-(12)----12--14-(14)-15-|-(15)--15-15--15-15--15-15--15-|
|-(12)----12--14-(14)-15-|-(15)--15-15--15-15--15-15--15-|
|-(10)----10--12-(12)-13-|-(13)--13-13--13-13--13-13--13-|
|------------------------|-------------------------------|


    Q..         S +Q      Q
|-------------------------------|
|-------------------------6-----|
|---------------5-(5)-----------|
|---7---------------------------|
|-------------------------------|
|-------------------------------|
|
|  +E.   S  E.  S  E.  S  E.  S
|--(5)---5--5---5--5---5--5---5-|
|--(6)---6--6---6--6---6--6---6-|
|--(5)---5--5---5--5---5--5---5-|
|--(3)---3--3---3--3---3--3---3-|
|-------------------------------|
|-------------------------------|
|
|  +E.   S  E.  S  E.  S  E.  S
|-------------------------------|
|-------------------------------|
|-(14)--14-14--14-14--14-14--14-|
|-(15)--15-15--15-15--15-15--15-|
|-(15)--15-15--15-15--15-15--15-|
|-(13)--13-13--13-13--13-13--13-|
|-------------------------------|


   Q..         S +Q      Q        Q  Q  H       W
|--------------7-(7)-----------|--7-----------|------|
|--8---------------------8-----|--------------|------|
|--7---------------------7-----|--------------|------|
|--9---------------------9-----|--------------|------|
|------------------------------|--------------|------|
|------------------------------|--------------|------|
|
|  E.   S  E.  S  E.  S  E.  S    Q  Q  Q  Q    W
|--7----7--7---7--7---7--7---7-|--7-----------|------|
|--8----8--8---8--8---8--8---8-|--8-----------|------|
|--7----7--7---7--7---7--7---7-|--7-----------|-2----|
|--5----5--5---5--5---5--5---5-|--5-----------|-2----|
|------------------------------|--------------|-0----|
|------------------------------|--------3--1--|------|
|
|  E.   S  E.  S  E.  S  E.  S    Q  Q  Q  Q    W
|------------------------------|--------------|------|
|------------------------------|--------------|------|
|-16---16-16--16-16--16-16--16-|-16-----------|-2----|
|-17---17-17--17-17--17-17--17-|-17-----------|-2----|
|-17---17-17--17-17--17-17--17-|-17-----------|-0----|
|-15---15-15--15-15--15-15--15-|-15-----3--1--|------|
|------------------------------|--------------|------|


  Gtr II
  H    E. S E S S   +W           H    E. S E S S   +W
|-----------------|------------|------3--4-----5-|-(5)----|
|-3---------------|------------|-6----3--4-----5-|-(5)----|
|-2----5--4-----2-|-(2)--------|-5----0--1-----2-|-(2)----|
|-0----5--4-----2-|-(2)--------|-3---------------|--------|
|------3--2-----0-|-(0)--------|-----------------|--------|
|-----------------|------------|-----------------|--------|
|
| Gtr III
| H    E. S E S S   +W           H    E. S E S S   +W
|-----------------|------------|------3--4-----5-|-(5)----|
|-3---------------|------------|-6----3--4-----5-|-(5)----|
|-2----5--4-----2-|-(2)--------|-5----0--1-----2-|-(2)----|
|-0----5--4-----2-|-(2)--------|-3---------------|--------|
|------3--2-----0-|-(0)--------|-----------------|--------|
|-----------------|------------|-----------------|--------|
|-----------------|------------|-----------------|--------|


  Gtr I
  W                  W                              Q   Q   Q   Q
|-----------------|-------------------------------|----10--15--19------|
|-----------------|-------------------------------|--------------------|
|-----------------|-------------------------------|-----7--12--16------|
|-----------------|-------------------------------|--------------------|
|-----------------|-------------------------------|--------------------|
|-----------------|-------------------------------|--------------------|
|
| Gtr II
| H    E. S E S S   +E. S S S S S S S S S S S S S   Q   Q   Q   E S S
|-----------------|-------------------------------|-----------------2--|
|-3---------------|-------------------------------|-----------------3--|
|-2----5--4-----2-|-(2)---------------------------|-----------------2--|
|-0----5--4-----2-|-(2)---------------------------|-----------------0--|
|------3--2-----0-|-(0)-0-0-0---0-0-0---0-0-0---0-|-0------------------|
|-----------------|-------------------------------|--------------------|
|
| Gtr III
| H    E. S E S S   +E. S S S S S S S S S S S S S   Q   Q   Q   E S S
|-----------------|-------------------------------|-----------------2--|
|-3---------------|-------------------------------|-----------------3--|
|-2----5--4-----2-|-(2)---------------------------|-----------------2--|
|-0----5--4-----2-|-(2)---------------------------|-----------------0--|
|------3--2-----0-|-(0)-0-0-0---0-0-0---0-0-0---0-|-0------------------|
|-----------------|-------------------------------|--------------------|
|-----------------|-------------------------------|--------------------|


  Gtr II
  W          H    E. S +E.   S   +W            Q   Q  Q  Q
|----------|-----------------2-|-(2)--------|----------------|
|----------|-----------------3-|-(3)--------|----------------|
|----------|-0---------------2-|-(2)--------|--0-------------|
|----------|------4--2-(2)---0-|-(0)--------|----------------|
|----------|-------------------|------------|----------------|
|----------|-------------------|------------|------0--3--4---|
|
| Gtr III
| W          H    E. S +S  E S   +W           +Q   Q  Q  Q
|----------|-------------------|------------|----------------|
|----------|------5--6-(6)---7-|-(7)--------|-(7)------------|
|----------|-0----5--6-(6)---7-|-(7)--------|-(7)------------|
|----------|------5--6-(6)---7-|-(7)--------|-(7)------------|
|----------|------3--4-(4)---5-|-(5)--------|-(5)------------|
|----------|-------------------|------------|---------3--4---|
|----------|-------------------|------------|------5---------|


  E. S E. S E. S E. S   Q    Q    E. S +Q
|---------------------|----------------------|
|---------------------|----------------------|
|---------------------|----------------------|
|---------------------|-7----5----7--7-(7)---|
|-7--7-7--7-7--7-7--7-|----------------------|
|-5--5-5--5-5--5-5--5-|----------------------|
|
| E. S E. S E. S E. S   E. S E. S E. S  E. S
|---------------------|----------------------|
|---------------------|----------------------|
|---------------------|----------------------|
|---------------------|----------------------|
|-7--7-7--7-7--7-7--7-|-7--7-7--7-7--7--7--7-|
|-5--5-5--5-5--5-5--5-|-5--5-5--5-5--5--5--5-|
|---------------------|----------------------|


  E. S E. S E. S E. S   Q    Q    E. S +E. S
|---------------------|----------------------|
|---------------------|--------------------3-|
|---------------------|-----------7--5-(5)-2-|
|---------------------|-7----5----7--5-(5)-2-|
|-7--7-7--7-7--7-7--7-|-----------7--5-(5)-0-|
|-5--5-5--5-5--5-5--5-|-----------5--3-(3)---|
|
| E. S E. S E. S E. S   E. S E. S E. S +E. S
|---------------------|----------------------|
|---------------------|----------------------|
|---------------------|-----------7--5-(5)-7-|
|---------------------|-----------7--5-(5)-7-|
|-7--7-7--7-7--7-7--7-|-7--7-7--7-7--5-(5)-7-|
|-5--5-5--5-5--5-5--5-|-5--5-5--5-5--------5-|
|---------------------|--------------8-(8)---|


  +W            H     E. S +E. S   +W            H     E. S +E.  S
|------------|-----------------2-|-(2)--------|--------2--4-(4)--5-|
|-(3)--------|-----------------3-|-(3)--------|--------3--5-(5)--6-|
|-(2)--------|--0--------------2-|-(2)--------|--2-----2--4-(4)--5-|
|-(2)--------|--------4--2-(2)-0-|-(0)--------|--------0--2-(2)--3-|
|-(0)--------|-------------------|------------|--------------------|
|------------|-------------------|------------|--------------------|
|
| +W           +H     E. S +E. S   +W           +H     E. S +E.  S
|------------|-------------------|------------|--------------------|
|------------|--------5--6-(6)-7-|-(7)--------|-(7)----7--9-(9)-10-|
|-(7)--------|-(7)----5--6-(6)-7-|-(7)--------|-(7)----7--9-(9)-10-|
|-(7)--------|-(7)----5--6-(6)-7-|-(7)--------|-(7)----7--9-(9)-10-|
|-(7)--------|-(7)----3--4-(4)-5-|-(5)--------|-(5)----5--7-(7)--8-|
|-(5)--------|-(5)---------------|------------|--------------------|
|------------|-------------------|------------|--------------------|


  Gtr I
    Q..         S  +Q      Q         Q..         S  +Q      Q
|--------------------------------|--------------------------------|
|--------------------------------|--------------------------------|
|--14----------------------------|--------------------------------|
|--------------15-(15)-----------|-------------------------15-----|
|-------------------------15-----|--------------15-(15)-----------|
|--------------------------------|--17----------------------------|
|
| Gtr II
|  +E.   S  E.  S   E.  S  E.  S    +E.   S  E.  S   E.  S  E.  S
|--(5)---5--5---5---5---5--5---5-|--(5)---5--5---5---5---5--5---5-|
|--(6)---6--6---6---6---6--6---6-|--(6)---6--6---6---6---6--6---6-|
|--(5)---5--5---5---5---5--5---5-|--(5)---5--5---5---5---5--5---5-|
|--(3)---3--3---3---3---3--3---3-|--(3)---3--3---3---3---3--3---3-|
|--------------------------------|--------------------------------|
|--------------------------------|--------------------------------|
|
| Gtr III
|  +E.   S  E.  S   E.  S  E.  S    +E.   S  E.  S   E.  S  E.  S
|--------------------------------|--------------------------------|
|-(10)--10-10--10--10--10-10--10-|-(10)--10-10--10--10--10-10--10-|
|-(10)--10-10--10--10--10-10--10-|-(10)--10-10--10--10--10-10--10-|
|-(10)--10-10--10--10--10-10--10-|-(10)--10-10--10--10--10-10--10-|
|--(8)---8--8---8---8---8--8---8-|--(8)---8--8---8---8---8--8---8-|
|--------------------------------|--------------------------------|
|--------------------------------|--------------------------------|


   Q..             S  +Q           Q
|--------------------------------------------|
|--------------------------------------------|
|-----------------16-(16)--------------------|
|-17------------------------------17---------|
|-17------------------------------17---------|
|-19------------------------------19---------|
|
|  E.   S  S  S S  S   S   S S  S  S  S S  S
|--7----7--7--7----7---7---7----7--7--7----7-|
|--8----8--8--8----8---8---8----8--8--8----8-|
|--7----7--7--7----7---7---7----7--7--7----7-|
|--5----5--5--5----5---5---5----5--5--5----5-|
|--------------------------------------------|
|--------------------------------------------|
|
|  E.   S  S  S S  S   S   S S  S  S  S S  S
|--------------------------------------------|
|-12---12-12-12---12--12--12---12-12-12---12-|
|-12---12-12-12---12--12--12---12-12-12---12-|
|-12---12-12-12---12--12--12---12-12-12---12-|
|-10---10-10-10---10--10--10---10-10-10---10-|
|--------------------------------------------|
|--------------------------------------------|


   Q  Q  H             W
|------------------|----------------------|
|------------------|----------------------|
|-16---------------|----------------------|
|------------------|----------------------|
|------------------|----------------------|
|------------------|----------------------|
|
|  Q  Q  Q  E S  S    +Q    Q  +H
|--7---------------|----------------------|
|--8-------------7-|--(7)---9--(9)--------|
|--7-------------7-|--(7)---9--(9)--------|
|--5-------------7-|--(7)---9--(9)--------|
|----------------5-|--(5)---7--(7)--------|
|------------------|----------------------|
|
|  Q  Q  Q  E S  S    +Q    Q   E. S E. S
|------------------|----------------------|
|-12---------------|----------------------|
|-12------------11-|-(11)--13-------------|
|-12------------12-|-(12)--14-------------|
|-10------------12-|-(12)--14-------------|
|---------------10-|-(10)--12---0--0-0--0-|
|------------------|----------------------|


   W                       W
|-----------------------|----------------------|
|-----------------------|----------------------|
|-----------------------|----------------------|
|-----------------------|----------------------|
|-----------------------|----------------------|
|-----------------------|----------------------|
|
| +Q    Q    Q     Q       Q  E S  S  +Q    Q
|-----------------------|----------------------|
|-(9)-------------------|----------------------|
|-(9)-------------------|-11------11-(11)---2--|
|-(9)-------------------|-12------12-(12)---2--|
|-(7)---7----9----11----|-12------12-(12)---0--|
|-----------------------|-10------10-(10)------|
|
|  E. S E. S E. S  E. S    Q  E S  S  +Q    Q
|-----------------------|----------------------|
|-----------------------|----------------------|
|-----------------------|-11------11-(11)------|
|-----------------------|-12------12-(12)------|
|-----------------------|-12------12-(12)--12--|
|--0--0-0--0-0--0--0--0-|-10------10-(10)--12--|
|-----------------------|------------------10--|


  Gtr II
   +Q   Q   Q  E S S   +Q   Q  +H
|------------------2-|-(2)--4--(4)--------|
|------------------3-|-(3)--5--(5)--------|
|--(2)------2------2-|-(2)--4--(4)--------|
|--(2)------2------0-|-(0)--2--(2)--------|
|--(0)------0--------|--------------------|
|-------3------------|--------------------|
|
| Gtr III
|  +Q   Q   Q  E S S   +Q   Q   E. S E. S
|--------------------|--------------------|
|------------------7-|-(7)--9-------------|
|------------------7-|-(7)--9-------------|
|-----------7------7-|-(7)--9-------------|
|-(12)------7------5-|-(5)--7-------------|
|-(12)---------------|--------------------|
|-(10)--8--10--------|----------5--5-5--5-|


  +Q    Q    Q    Q      Q  E S S +Q   Q
|-(4)------------------|------------------|
|-(5)------------------|-7------7-(7)-----|
|-(4)------------------|-7------7-(7)-----|
|-(2)---2----4----6----|-7------7-(7)--7--|
|----------------------|-5------5-(5)--7--|
|----------------------|---------------5--|
|
|  E. S E. S E. S E. S   Q  E S S +Q   Q
|----------------------|------------------|
|----------------------|-7------7-(7)-----|
|----------------------|-7------7-(7)-----|
|----------------------|-7------7-(7)--7--|
|----------------------|-5------5-(5)--7--|
|----------------------|---------------5--|
|--5--5-5--5-5--5-5--5-|------------------|


  +Q   Q  Q  E S S   +Q   Q  +H
|----------------2-|-(2)--4--(4)--------|
|----------------3-|-(3)--5--(5)--------|
|---------2------2-|-(2)--4--(4)--------|
|-(7)-----2------0-|-(0)--2--(2)--------|
|-(7)-----0--------|--------------------|
|-(5)--3-----------|--------------------|
|
| +Q   Q  Q  E S S   +Q   Q   E. S E. S
|----------------2-|-(2)--4-------------|
|----------------3-|-(3)--5-------------|
|---------2------2-|-(2)--4-------------|
|-(7)-----2------0-|-(0)--2-------------|
|-(7)-----0--------|--------------------|
|-(5)--3-----------|----------0--0-0--0-|
|------------------|--------------------|


  +Q    Q    Q    Q      Q  E S S +Q   Q
|-(4)------------------|------------------|
|-(5)------------------|-7------7-(7)-----|
|-(4)------------------|-7------7-(7)-----|
|-(2)---2----4----6----|-7------7-(7)--7--|
|----------------------|-5------5-(5)--7--|
|----------------------|---------------5--|
|
|  E. S E. S E. S E. S   Q  E S S +Q   Q
|----------------------|-2------2-(2)-----|
|----------------------|-3------3-(3)-----|
|----------------------|-2------2-(2)--2--|
|----------------------|-0------0-(0)--2--|
|----------------------|---------------0--|
|--0--0-0--0-0--0-0--0-|------------------|
|----------------------|------------------|


  +Q   Q  Q  E S S   +Q   Q  +H
|----------------2-|-(2)--4--(4)--------|
|----------------3-|-(3)--5--(5)--------|
|---------2------2-|-(2)--4--(4)--------|
|-(7)-----2------0-|-(0)--2--(2)--------|
|-(7)-----0--------|--------------------|
|-(5)--3-----------|--------------------|
|
| +Q   Q  Q  E S S   +Q   Q   E. S E. S
|----------------2-|-(2)--4-------------|
|----------------3-|-(3)--5-------------|
|-(2)-----2------2-|-(2)--4-------------|
|-(2)-----2------0-|-(0)--2-------------|
|-(0)-----0--------|--------------------|
|------3-----------|----------0--0-0--0-|
|------------------|--------------------|


  +Q    Q    Q    Q      Q  E S S +Q   Q
|-(4)------------------|------------------|
|-(5)------------------|-7------7-(7)-----|
|-(4)------------------|-7------7-(7)-----|
|-(2)---2----4----6----|-7------7-(7)--7--|
|----------------------|-5------5-(5)--7--|
|----------------------|---------------5--|
|
|  E. S E. S E. S E. S   Q  E S S +Q   Q
|----------------------|-2------2-(2)-----|
|----------------------|-3------3-(3)-----|
|----------------------|-2------2-(2)--2--|
|----------------------|-0------0-(0)--2--|
|----------------------|---------------0--|
|--0--0-0--0-0--0-0--0-|------------------|
|----------------------|------------------|


  +Q   Q  Q  E S S   +H       S  E S Q
|------------------|--------------------|
|------------------|--------------------|
|---------2------5-|-(5)-------------5--|
|-(7)-----2------5-|-(5)-------------5--|
|-(7)-----0------3-|-(3)------0----0-3--|
|-(5)--3-----------|--------------------|
|
| +Q   Q  Q  E S S   +E. S Q  E.   S Q
|------------------|--------------------|
|----------------5-|-(5)-5-5--5----5-5--|
|-(2)-----2--------|--------------------|
|-(2)-----2------2-|-(2)-2-2--2----2-2--|
|-(0)-----0--------|--------------------|
|------3-----------|--------------------|
|------------------|--------------------|


   S  E S Q  S  E S Q    Q   Q       Q   Q
|----------------------|-7-----------5------------|
|----------------------|--------------------------|
|---------5---------5--|-4-----------2------------|
|---------5---------5--|--------------------------|
|--0----0-3--0----0-3--|--------------------------|
|----------------------|--------------------------|
|
| +E.   S Q  E.   S Q    E E S S S S E E S S S S
|----------------------|--------------------------|
|-(5)---5-5--5----5-5--|--------------------------|
|----------------------|--------------------------|
|-(2)---2-2--2----2-2--|--------------------------|
|----------------------|--------------------------|
|----------------------|-0-0-0-0---0-0-0-0-0---0--|
|----------------------|--------------------------|


  Q   Q       E. S E S S   +H       S  E S Q     S  E S Q  S  E S Q
|-3----------------------|--------------------|----------------------|
|-------------5--3-------|--------------------|----------------------|
|-0-----------4--2-----5-|-(5)-------------5--|---------5---------5--|
|-------------2--0-----5-|-(5)-------------5--|---------5---------5--|
|----------------------3-|-(3)------0----0-3--|--0----0-3--0----0-3--|
|------------------------|--------------------|----------------------|
|
| E E S S S S E. S E S S   +E. S Q  E.   S Q    +E.   S Q  E.   S Q
|-------------3----------|--------------------|----------------------|
|----------------7-----5-|-(5)-5-5--5----5-5--|-(5)---5-5--5----5-5--|
|-------------0----------|--------------------|----------------------|
|----------------4-----2-|-(2)-2-2--2----2-2--|-(2)---2-2--2----2-2--|
|------------------------|--------------------|----------------------|
|-0-0-0-0---0------------|--------------------|----------------------|
|------------------------|--------------------|----------------------|


  Gtr I
  W                         H           Q    E S  S    +H      H
|-------------------------|-------------------------|---------------|
|-------------------------|-------------------------|---------------|
|-------------------------|-------------------------|----------9----|
|-------------------------|----------------------10-|-(10)----------|
|-------------------------|-------------------------|---------------|
|-------------------------|-----------------------8-|--(8)----12----|
|
| Gtr II
| Q   Q       Q   Q         Q   Q       E. S E S  S    +W
|-7-----------5-----------|-3-----------------------|---------------|
|-------------------------|-------------5--3--------|---------------|
|-4-----------2-----------|-0-----------4--2------5-|--(5)----------|
|-------------------------|-------------2--0--------|---------------|
|-------------------------|-----------------------3-|--(3)----------|
|-------------------------|-------------------------|---------------|
|
| Gtr III
| E E S S S S E E S S S S   E E S S S S E. S E S  S    +H      H
|-------------------------|-------------3-----------|----------3----|
|-------------------------|----------------7------5-|--(5)----------|
|-------------------------|-------------0-----------|----------0----|
|-------------------------|----------------4------2-|--(2)----------|
|-------------------------|-------------------------|---------------|
|-0-0-0-0---0-0-0-0-0---0-|-0-0-0-0---0-------------|---------------|
|-------------------------|-------------------------|---------------|


   H     H       H     H       H     H       W
|-------------|-------------|-------------|----------------------|
|-------------|-------------|-------------|----------------------|
|-------11----|-10----14----|-12----16----|-14-------------------|
|-12----------|-------------|-------------|----------------------|
|-------------|-------12----|-------14----|----------------------|
|-10----14----|-13----------|-15----------|-17-------------------|
|
|  W             W             W             E. S E. S E. S E. S
|-------------|-------------|--3----------|----------------------|
|--3----------|--6----------|--3----------|----------------------|
|--2----------|--5----------|--0----------|----------------------|
|--0----------|--3----------|-------------|--2--2-2--2-2--2-2--2-|
|-------------|-------------|-------------|--0--0-0--0-0--0-0--0-|
|-------------|-------------|-------------|----------------------|
|
|  H     H       H     H       H     H       W
|--------5----|--5-----8----|--7----10----|--9-------------------|
|--7----------|-------------|--0----------|----------------------|
|--------2----|--2-----5----|--------7----|--6-------------------|
|--4----------|-------------|-------------|----------------------|
|-------------|-------------|-------------|----------------------|
|-------------|-------------|-------------|----------------------|
|-------------|-------------|-------------|----------------------|


  Gtr II
   E. S Q  Q    Q      W
|--------------------|-------------------|
|--------------------|-------------------|
|--------------------|-9-----------------|
|--2--2--------------|-9-----------------|
|--0--0-0--4----5----|-7-----------------|
|--------------------|-------------------|
|
| Gtr III
| +H       E. S E. S   Q  E. S E. S E. S
|-(9)----------------|-------------------|
|--------------------|-------------------|
|-(6)----------------|-------------------|
|--------------------|-9--9--9-9--9-9--9-|
|----------7--7-7--7-|-7--7--7-7--7-7--7-|
|----------5--5-5--5-|-------------------|
|--------------------|-------------------|


  +H         Q  Q    W
|------------------|-------------------|
|------------------|-------------------|
|-(9)--------9--8--|-7-----------------|
|-(9)--------9--8--|-7-----------------|
|-(7)--------7--6--|-5-----------------|
|------------------|-------------------|
|
|  E. S E. S Q  Q    Q  E. S E. S E. S
|------------------|-------------------|
|------------------|-------------------|
|------------------|-------------------|
|--9--9-9--9-9--8--|-7--7--7-7--7-7--7-|
|--7--7-7--7-7--6--|-5--5--5-5--5-5--5-|
|------------------|-------------------|
|------------------|-------------------|


  +Q    Q    Q    Q      W
|----------------------|-------------------|
|----------------------|-5-----------------|
|-(7)------------------|-4-----------------|
|-(7)---4----2----0----|-2-----------------|
|-(5)------------------|-------------------|
|----------------------|-------------------|
|
|  E. S E. S E. S E. S   Q  E. S E. S E. S
|----------------------|-------------------|
|----------------------|-------------------|
|----------------------|-------------------|
|--7--7-7--7-7--7-7--7-|-9--9--9-9--9-9--9-|
|--5--5-5--5-5--5-5--5-|-7--7--7-7--7-7--7-|
|----------------------|-------------------|
|----------------------|-------------------|


  E. S E. S E. S E S S   +W
|----------------------|----------------------|
|----------------------|----------------------|
|--------------------2-|-(2)------------------|
|--------------------2-|-(2)------------------|
|--------------------0-|-(0)------------------|
|-0--0-0--0-0--0-------|----------------------|
|
| E. S E. S E. S E S S    Q   E. S E. S E. S
|----------------------|----------------------|
|----------------------|----------------------|
|----------------------|----------------------|
|----------------------|----------------------|
|--------------------7-|--7---7--7-7--7-7--7--|
|--------------4-----5-|--5---5--5-5--5-5--5--|
|-5--5-5--5-5----------|----------------------|


  Gtr I
   W                     W
|----------------------|-------------------|
|----------------------|-------------------|
|----------------------|-------------------|
|----------------------|-------------------|
|----------------------|-------------------|
|----------------------|-------------------|
|
| Gtr II
| +Q    Q    Q    Q      W
|----------------------|-------------------|
|----------------------|-------------------|
|-(2)------------------|-9-----------------|
|-(2)------------------|-9-----------------|
|-(0)---0----4----5----|-7-----------------|
|----------------------|-------------------|
|
| Gtr III
|  E. S E. S E. S E. S   Q  E. S E. S E. S
|----------------------|-------------------|
|----------------------|-------------------|
|----------------------|-------------------|
|----------------------|-9--9--9-9--9-9--9-|
|--7--7-7--7-7--7-7--7-|-7--7--7-7--7-7--7-|
|--5--5-5--5-5--5-5--5-|-------------------|
|----------------------|-------------------|


   W                      Q   Q   Q   Q
|----------------------|-----------------|
|----------------------|-----------------|
|----------------------|-------------14--|
|----------------------|---------15------|
|----------------------|-----15----------|
|----------------------|-13--------------|
|
| +W                      W
|----------------------|-----------------|
|----------------------|-----------------|
|-(9)------------------|-10--------------|
|-(9)------------------|-10--------------|
|-(7)------------------|--8--------------|
|----------------------|-----------------|
|
|  E. S E. S E. S E. S    W
|----------------------|-----------------|
|----------------------|-----------------|
|----------------------|-10--------------|
|--9--9-9--9-9--9-9--9-|-10--------------|
|--7--7-7--7-7--7-7--7-|--8--------------|
|----------------------|-----------------|
|----------------------|-----------------|


   Q   Q   +H        W                 W                 W
|-----------------|-----------------|-----------------|-----------------|
|-12--------------|-----------------|-----------------|-----------------|
|-----12--(12)----|-----------------|-----------------|-----------------|
|-----------------|-----------------|-----------------|-----------------|
|-----------------|-----------------|-----------------|-----------------|
|-----------------|-----------------|-----------------|-----------------|
|
|  W                 Q   Q   +H        Q   Q   Q   Q     Q   Q   +H
|-----------------|-----------------|-----------------|-----------------|
|-----------------|-----------------|-------------12--|-10--10--(10)----|
|-12--------------|-14--14--(14)----|-12--11--12--11--|--9---9---(9)----|
|-12--------------|-14--14--(14)----|-12--11--12---9--|--7---7---(7)----|
|-10--------------|-12--12--(12)----|---------10------|-----------------|
|-----------------|-----------------|-15--14----------|-----------------|
|
|  W                 Q   Q   +H        Q   Q   Q   Q     Q   Q   +H
|-----------------|-----------------|-----------------|-----------------|
|-----------------|-----------------|-------------12--|-10--10--(10)----|
|-12--------------|-14--14--(14)----|-12--11--12--11--|--9---9---(9)----|
|-12--------------|-14--14--(14)----|-12--11--12---9--|--7---7---(7)----|
|-10--------------|-12--12--(12)----|-10---9--10------|-----------------|
|-----------------|-----------------|-----------------|-----------------|
|-----------------|-----------------|-----------------|-----------------|


  Gtr II
  Q  Q  Q  Q    Q  Q  +H       Q  Q  Q  Q    Q  Q  +H
|-------3--7--|-5--5--(5)----|-3-----3--7--|-5--5--(5)----|
|-8--7--3--7--|-5--5--(5)----|-3--7--3--7--|-5--5--(5)----|
|-7--6--0--4--|-2--2--(2)----|-0--6--0--4--|-2--2--(2)----|
|-5--4--------|--------------|----4--------|--------------|
|-------------|--------------|-------------|--------------|
|-------------|--------------|-------------|--------------|
|
| Gtr III
| Q  Q  Q  Q    Q  Q  +H       Q  Q  Q  Q    Q  Q  +H
|-------3--7--|-5--5--(5)----|-3-----3--7--|-5--5--(5)----|
|-8--7--3--7--|-5--5--(5)----|-3--7--3--7--|-5--5--(5)----|
|-7--6--0--4--|-2--2--(2)----|-0--6--0--4--|-2--2--(2)----|
|-5--4--------|--------------|----4--------|--------------|
|-------------|--------------|-------------|--------------|
|-------------|--------------|-------------|--------------|
|-------------|--------------|-------------|--------------|


  Q  Q  Q  Q    S S S S Q  S S S S Q    S S S S Q  Q  Q
|-3-----3-----|-----------------------|------------------|
|-3--7--3--7--|---------5----------3--|------------------|
|-0--6--0--6--|---------4----------2--|------------2--4--|
|----4-----4--|---------2----------0--|---------5--2--4--|
|-------------|-----------------------|---------5--0--2--|
|-------------|-0-0---0----0-0---0----|-0-0---0-3--------|
|
| Q  Q  Q  Q    S S S S Q  S S S S Q    S S S S Q  Q  Q
|-3-----3-----|-----------------------|------------------|
|-3--7--3--7--|-----------------------|------------------|
|-0--6--0--6--|---------9----------7--|------------------|
|----4-----4--|---------9----------7--|---------5--7--9--|
|-------------|---------7----------5--|---------5--7--9--|
|-------------|-----------------------|------------5--7--|
|-------------|-5-5---5----5-5---5----|-5-5---5-8--------|


  S S S S Q  S S S S Q    Q  Q  H      S S S S  Q  S S S S  Q
|-----------------------|-3--5-------|--------------------------|
|---------5----------3--|-3--5-------|----------5-----------3---|
|---------4----------2--|-0--2-------|--------------------------|
|---------2----------0--|------------|----------2-----------0---|
|-----------------------|------------|--------------------------|
|-0-0---0----0-0---0----|------------|-0-0---0-----0-0---0------|
|
| S S S S Q  S S S S Q    Q  Q  H      S S S S  Q  S S S S  Q
|-----------------------|-3--5-------|--------------------------|
|-----------------------|-3--5-------|--------------------------|
|---------9----------7--|-0--2-------|--------------------------|
|---------9----------7--|------------|---------14---------------|
|---------7----------5--|------------|---------------------17---|
|-----------------------|------------|-0-0---0-----0-0---0------|
|-5-5---5----5-5---5----|------------|---------16----------14---|


  Gtr I
  W                     W                         H           E S  S  +Q
|---------------------|-------------------------|------------------------------|
|---------------------|-------------------------|------------------------------|
|---------------------|-------------------------|------------------------------|
|---------------------|-------------------------|-----------------10-(10)------|
|---------------------|-------------------------|------------------------------|
|---------------------|-------------------------|------------------------------|
|
| Gtr II
| S S S S  Q   Q   Q    S S S S  Q  S S S S  Q    E. S +S  E. Q        Q
|---------------------|-------------------------|------------------------------|
|---------------------|----------5-----------3--|------------------------------|
|--------------2---4--|-------------------------|------------------------------|
|----------5----------|----------2-----------0--|------------------------------|
|------------------2--|-------------------------|-2--1-(1)-0-------------------|
|-0-0---0--3---5------|-0-0---0-----0-0---0-----|-------------4----------------|
|
| Gtr III
| S S S S  Q   Q   Q    S S S S  Q  S S S S  Q    E. S +S  E. Q        E  S S
|---------------------|-------------------------|------------------------------|
|---------------------|-------------------------|------------------------------|
|---------------------|-------------------------|---------------------------2--|
|-------------11--12--|---------14--------------|---------------------------2--|
|---------14----------|---------------------17--|---------------------------0--|
|-0-0---0-------------|-0-0---0-----0-0---0-----|-4--3-(3)-2--0----------------|
|---------12--14--15--|---------16----------14--|------------------------------|


   Q    E.  S  Q     E.  S   Q    E. S Q..      S   +E. S E. S S S S S S S S S
|--------------------------|----------------------|----------------------------|
|--------------------------|----------------------|----------------------------|
|--------------------------|----------------------|----------------------------|
|--------------------------|----------------------|----------------------------|
|-12---10--10--------------|--------------------0-|-(0)-0----0-3-4---5-7-8---9-|
|-------------12----11--10-|-8----5--4-3----------|-------3--------------------|
|
| Gtr III
| +Q    E.  S  E. S  E.  S   E. S E. S E.  S E. S   +W
|--------------------------|----------------------|----------------------------|
|--------------------------|----------------------|----------------------------|
|-(2)----------------------|--------------------5-|-(5)------------------------|
|-(2)----------------------|--------------------5-|-(5)------------------------|
|-(0)---0---0--0--0--0---0-|-0--0-0--0-0---0-0--3-|-(3)------------------------|
|--------------------------|----------------------|----------------------------|
|--------------------------|----------------------|----------------------------|


  S S S  S  S  S S  S  S    S S  S  S  S S  S
|---------------------------------------------|
|---------------------------------------------|
|---------------------------------------------|
|---------------------------------------------|
|----------------------------------15---------|
|-8-9---10-12-13---14-15---16---17----17---15-|
|
| H                   +Q..                  S
|---------------------------------------------|
|-3-------------------(3)---------------------|
|-2-------------------(2)-------------------2-|
|-0-------------------(0)-------------------2-|
|-------------------------------------------0-|
|---------------------------------------------|
|---------------------------------------------|


   E.  S E  S  S  S   S S S  S   S S  S    Q.       E    H
|---------------------------------------|---------------------------|
|---------------------------------------|---------------------------|
|---------------------------------------|----------12---------------|
|-------------------------0----------12-|-12------------12----------|
|-16--16------------------------------0-|---------------------------|
|-17--17------15-17--15-----12--10------|---------------------------|
|
| +Q     E.    S  E.      S  E.       S    E. S E.    S  E. S E. S
|---------------------------------------|---------------------------|
|---------------------------------------|---------------------------|
|-(2)-----------------------------------|------------------------5--|
|-(2)-----------------------------------|------------------------5--|
|-(0)----0-----0--0-------0--0--------0-|--0--0-0-----0--0--0-0--3--|
|---------------------------------------|---------------------------|
|---------------------------------------|---------------------------|


   S   S  S  S  S  S  S  S  S S S S S S S S
|--------------------------10-------8-------|
|-12-----------13-------------8---8---8---8-|
|-----12----12----12----12------9-------9---|
|--------14----------14---------------------|
|-------------------------------------------|
|-------------------------------------------|
|
| +W
|-------------------------------------------|
|-------------------------------------------|
|-(5)---------------------------------------|
|-(5)---------------------------------------|
|-(3)---------------------------------------|
|-------------------------------------------|
|-------------------------------------------|


   Q   Q   Q   Q     E.      S  Q   E.      S  S  S S  S
|-15--------------|---------------------------------------|
|-----------------|-14------14-14--14------14-15-14-------|
|-------------16--|-14------14-14--14------14---------14--|
|-----17--17------|---------------------------------------|
|-----------------|---------------------------------------|
|-----15--15--19--|---------------------------------------|
|
|  W                 S  S S  S  Q   S  S S  S  Q
|-----------------|---------------------------------------|
|-----------------|---------------------------------------|
|--5--------------|---------------------------------------|
|--5--------------|-------------7--------------7----------|
|--3--------------|-------------7--------------7----------|
|-----------------|--5--5----5--5---5--5----5--5----------|
|-----------------|---------------------------------------|


   S  S S  S  S  S S  S  S  S S  S  Q       E.  S  Q   H       E.  S  Q   H
|-----------------------12---------------|------------12----|------------12----|
|-15-14------15-14---------14------------|-14--14-12--13----|-14--14-12--13----|
|---------14---------14---------14-------|-14--14-12--------|-14--14-12--------|
|----------------------------------14----|------------------|------------------|
|----------------------------------------|------------------|------------------|
|----------------------------------------|------------------|------------------|
|
|  S  S S  S  Q          S  S S  S  E. S   +W                  W
|----------------------------------------|------------------|------------------|
|----------------------------------------|------------------|--3---------------|
|--------------------------------------5-|-(5)--------------|--2---------------|
|-------------7------------------------5-|-(5)--------------|--0---------------|
|-------------7------------------------3-|-(3)--------------|------------------|
|--5--5----5--5----------5--5----5--5----|------------------|------------------|
|----------------------------------------|------------------|------------------|


   S  S S  S  E.  S  S   S S  S  S   S S  S
|-------------------------------------------|
|-------------------------------------------|
|-------------------------------------------|
|-------------------14--16---17-------------|
|-10-11---12-14--12-------------------------|
|-------------------------------19--21---22-|
|
|  Q          E.  S  E.       S  E.       S
|-------------------------------------------|
|-------------------------------------------|
|--2----------------------------------------|
|--2----------------------------------------|
|--0----------0---0--0--------0--0--------0-|
|-------------------------------------------|
|-------------------------------------------|


   S   S S  S  S   S S  S  S   S S  S  S   S S  S
|--------------------------------------------------|
|--------------------------------------------------|
|--------------------------------------------------|
|-------------------------21--23---24--------------|
|-------------21--22---24-------------21--22---24--|
|-21--22---24--------------------------------------|
|
|  E.       S  E.       S  E.       S  E.       S
|--------------------------------------------------|
|--------------------------------------------------|
|-----------------------------------------------5--|
|-----------------------------------------------5--|
|--0--------0--0--------0--0--------0--0--------3--|
|--------------------------------------------------|
|--------------------------------------------------|


   S   S S  S  S  S S  S  S  S S  S  S  S S  S
|-------------------------------------------20-|
|---------------------------19---20-22-24------|
|------------------------21--------------------|
|-------------21-23---24-----------------------|
|-21--22---24----------------------------------|
|----------------------------------------------|
|
| Gtr II
|  W
|----------------------------------------------|
|----------------------------------------------|
|----------------------------------------------|
|----------------------------------------------|
|----------------------------------------------|
|----------------------------------------------|
|
| Gtr III
| +W
|----------------------------------------------|
|----------------------------------------------|
|-(5)------------------------------------------|
|-(5)------------------------------------------|
|-(3)------------------------------------------|
|----------------------------------------------|
|----------------------------------------------|


   S  S S  S  S  S S  S  H       W
|--------------------20-20----|-20-----------------------------|
|----19---20-22-24------------|--------------------------------|
|-21--------------------------|--------------------------------|
|-----------------------------|--------------------------------|
|-----------------------------|--------------------------------|
|-----------------------------|--------------------------------|
|
|  W                             E. S E. S S S S S  S S S  S
|-----------------------------|--------------------------------|
|-----------------------------|--5----6------------------------|
|-----------------------------|--5--5-7--5-5-7---9-10-9--------|
|-----------------------------|-----5----5-5-7---9-10-9---10---|
|-----------------------------|---------------------------10---|
|-----------------------------|--------------------------------|
|
|  W                             W
|-----------------------------|--------------------------------|
|-----------------------------|--------------------------------|
|-----------------------------|--5-----------------------------|
|--5--------------------------|--5-----------------------------|
|--5--------------------------|--3-----------------------------|
|--3--------------------------|--------------------------------|
|-----------------------------|--------------------------------|


   W                                     W
|-22----------------------------------|-20----------------------------------|
|-------------------------------------|-------------------------------------|
|-------------------------------------|-------------------------------------|
|-------------------------------------|-------------------------------------|
|-------------------------------------|-------------------------------------|
|-------------------------------------|-------------------------------------|
|
|  E.  S  E.  S  S  S S  S  S  S S  S    E.  S  E.  S  S  S S  S  S  S S  S
|-------------------------------------|-------------------------------------|
|-------------------------------------|-------------------------------------|
|-11-----12---------------------------|-------------------------------------|
|-12--12-14--12-12-14---16-17-16------|--------15---------------------------|
|-----12-----12-12-14---18-19-18---17-|-19--15-17--15-15-17---19-20-19---15-|
|----------------------------------17-|-20--15-----15-15-17---19-20-19---15-|
|
|  W                                     W
|-------------------------------------|-------------------------------------|
|--3----------------------------------|-------------------------------------|
|--2----------------------------------|--5----------------------------------|
|--0----------------------------------|--5----------------------------------|
|-------------------------------------|--3----------------------------------|
|-------------------------------------|-------------------------------------|
|-------------------------------------|-------------------------------------|


   W
|-22-----------------------------------|
|--------------------------------------|
|--------------------------------------|
|--------------------------------------|
|--------------------------------------|
|--------------------------------------|
|
|  E.  S  E.  S  S  S S  S  S  S S  S
|--------------------------------------|
|--------------------------------------|
|--------------------------------------|
|-16-----17----------------------------|
|-17--17-19--17-17-19---21-22-21---17--|
|-----17-----17-17-19---23-24-23---17--|
|
|  W
|--------------------------------------|
|--3-----------------------------------|
|--2-----------------------------------|
|--0-----------------------------------|
|--------------------------------------|
|--------------------------------------|
|--------------------------------------|


  Gtr II
   E.  S  E.  S  E.  S  E.  S    E.  S  E.  S  E.  S  E.  S
|-----------------------------|-----------------------------|
|-----------------------------|-----------------------------|
|-----------------------------|---------------19-----17-----|
|-19-----20-----22-----20-----|-21-----22-----21--17-19--17-|
|-20--20-22--20-24--20-22--20-|-22--22-24--22-----17-----17-|
|-----20-----20-----20-----20-|-----22-----22---------------|
|
| Gtr III
|  W                             W
|-----------------------------|--3--------------------------|
|--6--------------------------|--3--------------------------|
|--5--------------------------|--0--------------------------|
|--3--------------------------|-----------------------------|
|-----------------------------|-----------------------------|
|-----------------------------|-----------------------------|
|-----------------------------|-----------------------------|


   S  S S  S  S  S S  S  S  S S  S  S  S S  S
|----------------------------------------------|
|-17-17---17-----------------------------------|
|-18-17---17-18-18---18------------------------|
|------------19-19---19-19-19---19-------------|
|-----------------------19-19---19-19-19---19--|
|----------------------------------21-21---21--|
|
|  S  S S  S  S  S S  S  S  S S  S  S  S S  S
|--5--5----5--5--5----5--5--5----5--5--5----5--|
|--5--5----5--5--5----5--5--5----5--5--5----5--|
|--2--2----2--2--2----2--2--2----2--2--2----2--|
|----------------------------------------------|
|----------------------------------------------|
|----------------------------------------------|
|----------------------------------------------|


  Gtr I
   H    E S  S Q        W
|--------------------|--------------------|
|--------------------|--------------------|
|-----------21-------|--------------------|
|-----------21-------|--------------------|
|--------------------|--------------------|
|--------------------|--------------------|
|
| Gtr II
|  H    Q      E S S   +Q   Q  +H
|------------------2-|-(2)--4--(4)--------|
|------------------3-|-(3)--5--(5)--------|
|------------------2-|-(2)--4--(4)--------|
|------------------0-|-(0)--2--(2)--------|
|-16-----------------|--------------------|
|-17-----------------|--------------------|
|
| Gtr III
|  H    Q      E S S   +Q   Q   E. S E. S
|--5-----------------|------4-------------|
|--5---------------3-|-(3)--5-------------|
|--2---------------2-|-(2)--4-------------|
|------------------0-|-(0)--2-------------|
|--------------------|--------------------|
|--------------------|----------0--0-0--0-|
|--------------------|--------------------|


   W                     W
|----------------------|-------------------|
|----------------------|-------------------|
|----------------------|-------------------|
|----------------------|-------------------|
|----------------------|-------------------|
|----------------------|-------------------|
|
| +Q    Q    Q    Q      Q  E S S +Q   Q
|-(4)------------------|-------------------|
|-(5)------------------|-7------7-(7)------|
|-(4)------------------|-7------7-(7)------|
|-(2)---2----4----6----|-7------7-(7)--7---|
|----------------------|-5------5-(5)--7---|
|----------------------|---------------5---|
|
|  E. S E. S E. S E. S   Q  E S S +Q   Q
|----------------------|-2------2-(2)------|
|----------------------|-3------3-(3)------|
|----------------------|-2------2-(2)--2---|
|----------------------|-0------0-(0)--2---|
|----------------------|---------------0---|
|--0--0-0--0-0--0-0--0-|-------------------|
|----------------------|-------------------|


  Gtr II
  +Q   Q  Q  E S S   +Q   Q  +H
|----------------2-|-(2)--4--(4)--------|
|----------------3-|-(3)--5--(5)--------|
|---------2------2-|-(2)--4--(4)--------|
|-(7)-----2------0-|-(0)--2--(2)--------|
|-(7)-----0--------|--------------------|
|-(5)--3-----------|--------------------|
|
| Gtr III
| +Q   Q  Q  E S S   +Q   Q   E. S E. S
|----------------2-|-(2)--4-------------|
|----------------3-|-(3)--5-------------|
|-(2)-----2------2-|-(2)--4-------------|
|-(2)-----2------0-|-(0)--2-------------|
|-(0)-----0--------|--------------------|
|------3-----------|----------0--0-0--0-|
|------------------|--------------------|


  +Q    Q    Q    Q      Q  E S S +Q   Q
|-(4)------------------|----------
comments
We did not receive enough feedback on this tab! Please rate:
1 2 3 4 5
I want to post or [tab]
guest
You may want to rate the tab now too:
select rating
Please do not post tabs as comments. Select "correction" instead!