Oops, an error
Loading. Please wait.

Endless Rain Bass Tab

ver1
ver1

Whole song

More versions @911Tabs.com
6,139 views 23 this week
no commentswrite comment
1 2 3 4 5
please rate
Autoscroll
+/-
esc
set tempo
stop
Contributor
Hey! There's an official Ultimate Guitar app which is ideal
for learning songs when you're away from computer. Get the app
WARNING: You are trying to view
                                    content from Ultimate-Guitar.com
                                    in an unauthorized application,
                                    which is prohibited.

                                    Please use an official Ultimate
                                    Guitar Tabs application for iPhone,
                                    iPad or Android to access legitimate
                                    chords, guitar, bass, and drum tabs
                                    from Ultimate-Guitar.com database.

                                    Type "ultimate guitar tabs" in Apple
                                    App Store's or Android Market's
                                    search to find the application.
#----------------------------------PLEASE NOTE---------------------------------#
#This file is the author's own work and represents their interpretation of the #
#song. You may only use this file for private study, scholarship, or research. #
#------------------------------------------------------------------------------#

ENDLESS RAIN (Bassline)
As recorded by X Japan


	



Gtr I (E A D G) - 'Slap Bass'
Gtr II (E A D G B E) - 'Keyboard Right'
Gtr III (E A D G B E) - 'Keyboard Left'

  Q=72
 4/4
  Gtr I
  W          W          W          W
|----------|----------|----------|------|
|----------|----------|----------|------|
|----------|----------|----------|------|
|----------|----------|----------|------|


  W          W           Q.        S  S  Q.        S  S
|----------|----------|-16------------------------------|
|----------|----------|-----------16-18-16--------------|
|----------|----------|---------------------------14-16-|
|----------|----------|---------------------------------|
|
| Gtr II
| W          W           E   E  E  E     E   E  E  E
|----------|----------|---------------------------------|
|----------|----------|-16-----16-------14-----14-------|
|----------|----------|-16-----16-------15-----15-------|
|----------|----------|-----16----16--------16----16----|
|----------|----------|---------------------------------|
|----------|----------|---------------------------------|
|
| Gtr III
| W          W           W
|----------|----------|---------------------------------|
|----------|----------|---------------------------------|
|----------|----------|---------------------------------|
|----------|----------|---------------------------------|
|----------|----------|--2------------------------------|
|----------|----------|---------------------------------|


   H           Q      S  S  S  S
|--------------------------------|
|-------------16-----------------|
|-14-----------------14----14-16-|
|-----------------------14-------|
|
|  E  E  E  E  E   E  E     E
|--------------------------------|
|-------------14-----14----------|
|-16----16----15-----15----------|
|-18-16-18-16-----16-------16----|
|--------------------------------|
|--------------------------------|
|
|  H          +Q.           E
|--------------------------------|
|--------------------------------|
|--------------------------------|
|--------------------------------|
|--2----------(2)----------------|
|---------------------------2----|


   S  S  E  +Q      +H              +H            +Q.        E
|--------------------------------|-----------------------------|
|--------------------------------|--------------------------16-|
|-14-16-14-(14)----(14)----------|-(14)----------(14)----------|
|--------------------------------|-----------------------------|
|
|  E     E   E   E   E   E  E  E     E   E  E  E   E   E  E  E
|--------------------------------|-----------------------------|
|-16--------16------14-----14----|----------------14-----14----|
|-16--------16------15-----15----|--16-----16-----15-----15----|
|-------16------16------16----16-|--18--16-18-16------16----16-|
|--------------------------------|-----------------------------|
|--------------------------------|-----------------------------|
|
|  W                                 H            +Q.        E
|--------------------------------|-----------------------------|
|--------------------------------|-----------------------------|
|--------------------------------|-----------------------------|
|--------------------------------|-----------------------------|
|--2-----------------------------|---2------------(2)----------|
|--------------------------------|---------------------------2-|


   H            +E   E  E  E    H        H
|-------------------------13-|-11--------------------|
|-14-----------(14)----------|-----------------------|
|----------------------14----|-----------9-----------|
|-------------------16-------|-----------------------|
|
|  E   E  E  E   E   E  E  E    E E E E  Q   S  S  E
|----------------------------|------7----9---9-11-12-|
|----------------------21----|------9-5-11--11-------|
|---------------21-----21----|----4-----11--11-------|
|-18-----21-----21--------21-|-----------------------|
|-19-----23-19------23-------|-23--------------------|
|-----19---------------------|-24--------------------|
|
|  Q.        E   H              H        Q   E     E
|----------------------------|-----------------------|
|----------------------------|-----------------------|
|----------------------------|-----------------------|
|--2-------------2-----------|-----------------------|
|------------2---------------|---------------1-------|
|----------------------------|--2--------2---------2-|


  +W                          +W
|---------------------------|---------------------------|
|---------------------------|---------------------------|
|-(9)-----------------------|-(9)-----------------------|
|---------------------------|---------------------------|
|
|  E   E  E  E  E   E  E  E    E   E  E  E  E   E  E  E
|-12-----12----11-----11----|-12-----12----11-----11----|
|-12-----12----12-----12----|-12-----12----12-----12----|
|-----11----11-----11----11-|-----11----11-----11----11-|
|---------------------------|---------------------------|
|---------------------------|---------------------------|
|---------------------------|---------------------------|
|
|  Q.        E  Q.        E    Q.        E  Q.        E
|---------------------------|---------------------------|
|---------------------------|---------------------------|
|---------------------------|---------------------------|
|---------------------------|---------------------------|
|--2------------2-----------|--2------------2-----------|
|------------2------------2-|------------2------------2-|


   W                          W
|--------------------------|--------------------------|
|--------------------------|--------------------------|
|--------------------------|--------------------------|
|--------------------------|--------------------------|
|
|  E  E  E  E  E   E  E  E    E  E  E  E  E   E  E  E
|--------------------------|--------------------------|
|--------------------------|-------------11-----------|
|-------------16-----------|-------------11-----------|
|-13----------16-----16----|----------11-----11-11-14-|
|-14----14-16-----18-18-14-|-16----13-----------13-10-|
|----14--------------------|-18-14--------------------|
|
|  H          +Q.        E    H          +Q.        E
|--------------------------|--------------------------|
|--------------------------|--------------------------|
|--------------------------|--------------------------|
|--------------------------|--------------------------|
|--2----------(2)--------2-|--2----------(2)--------1-|
|--------------------------|--------------------------|


  Gtr II
  E E E E  E  E E E   E   E  E  E  E  E  E E
|----------7--------|------------------------|
|-------4--9----9---|------------------------|
|-8---4-------8-8---|-9------9---------------|
|-9-6-------------9-|-9-----11----11----11---|
|-------------------|----11----11-13--9-13-9-|
|-------------------|------------------------|
|
| Gtr III
| H       +Q.     E   Q.        E  Q.      E
|-------------------|------------------------|
|-------------------|------------------------|
|-------------------|------------------------|
|-------------------|------------------------|
|-------------------|------------------------|
|-4-------(4)-----4-|-0---------0--2-------2-|


  E E E E  E  E E E    E E E E  E  E E E
|----------7--------|-----------6--------|
|----------7----7---|-----------7------5-|
|-8-----8-----8-8---|--------6-----6-6-0-|
|-9---9-----------9-|-11---8---------8---|
|---9---------------|-13-9---------------|
|-------------------|--------------------|
|
| H       +Q.     E    H       +Q.     E
|-------------------|--------------------|
|-------------------|--------------------|
|-------------------|--------------------|
|-------------------|--------------------|
|-2-------(2)-----2-|--2-------(2)-----1-|
|-------------------|--------------------|


  E E E E E  E E E   E  E E E E  E E E   E  E E E E  E E E   E  E E E E  E E E
|---------4----4---|-------------------|-------------------|-------------------|
|-4-----4-5----5---|-2----2---4----2---|-5----5---7----7---|-7----7---8----8---|
|-4---4------4---4-|-4----4---3----3---|-4----4---6----6---|-8----8---8----8---|
|---6--------------|----4---4----4---4-|----6---6----8---8-|----9---9----8---8-|
|------------------|-------------------|-------------------|-------------------|
|------------------|-------------------|-------------------|-------------------|
|
| H       Q.     E   Q.     E Q.     E   Q.     E Q.     E   Q.     E Q.     E
|------------------|-------------------|-------------------|-------------------|
|------------------|-------------------|-------------------|-------------------|
|------------------|-------------------|-------------------|-------------------|
|------------------|-------------------|-------------------|----------1--------|
|------------------|-------------------|-------------------|-2---------------1-|
|-4-------0------0-|-2------2-2------2-|-0------0-2------2-|--------2----------|


  Gtr I
  W                        W
|-----------------------|---------------------------|
|-----------------------|---------------------------|
|-----------------------|---------------------------|
|-----------------------|---------------------------|
|
| Gtr II
| E  E E E  E   E  E  E    E   E  E  E  E   E  E  E
|-----------------------|---------------------------|
|-9----9----------------|---------------------------|
|-9----9---11-----11----|---------------------------|
|----9---9-11-----11----|-14-----14----13-----13----|
|--------------13----13-|-14-----14----14-----14----|
|-----------------------|-----14----14-----14----14-|
|
| Gtr III
| Q.     E  Q.        E    Q.        E  Q.        E
|-----------------------|---------------------------|
|-----------------------|---------------------------|
|-----------------------|---------------------------|
|-2---------4-----------|---------------------------|
|--------2------------4-|--2------------2-----------|
|-----------------------|------------2------------2-|


   Q      E  E  +S   E.     +Q        W
|-----------16-(16)----------------|---------------------------|
|-------------------16-----(16)----|---------------------------|
|----------------------------------|--2------------------------|
|----------------------------------|---------------------------|
|
|  E   E  E  E   E       E   E   E    E  E  E  E  E   E  E  E
|----------------------------------|---------------------------|
|----------------------------------|---------------------------|
|----------------------------------|-------------16------------|
|-14-----14-----13----------13-----|-13----------16-----16-----|
|-14-----14-----14----------14-----|-14----14-16-----18-18-14--|
|-----14----14----------14------14-|----14---------------------|
|
|  Q.        E   Q.              E    H          +Q.        E
|----------------------------------|---------------------------|
|----------------------------------|---------------------------|
|----------------------------------|---------------------------|
|----------------------------------|---------------------------|
|--2-------------2-----------------|--2----------(2)--------2--|
|------------2-------------------2-|---------------------------|


   H          +Q.        E   W
|------------------------0-|-1-----------------|
|--------------------------|-------------------|
|--2----------(2)----------|-------------------|
|--------------------------|-------------------|
|
|  E  E  E  E  E   E  E  E   E E E E  E  E E E
|--------------------------|----------7--------|
|-------------11-----------|-------4--9----9---|
|-------------11-----------|-8---4-------8-8---|
|----------11-----11-11-14-|-9-6-------------9-|
|-16----13-----------13-10-|-------------------|
|-18-14--------------------|-------------------|
|
|  H          +Q.        E   H       +Q.     E
|--------------------------|-------------------|
|--------------------------|-------------------|
|--------------------------|-------------------|
|--------------------------|-------------------|
|--2----------(2)--------1-|-------------------|
|--------------------------|-4-------(4)-----4-|


  Q.        S S  Q     E S S   W
|----------------------------|-------------------|
|-2---------2-3--4-----------|-------------------|
|----------------------------|-2-----------------|
|----------------------2-4-2-|-------------------|
|
| E   E  E  E    E  E  E E     E E E E  E  E E E
|----------------------------|----------7--------|
|----------------------------|----------7----7---|
|-9------9-------------------|-8-----8-----8-8---|
|-9-----11------11----11-----|-9---9-----------9-|
|----11----11---13--9-13-9---|---9---------------|
|----------------------------|-------------------|
|
| Q.        E    Q.      E     H       +Q.     E
|----------------------------|-------------------|
|----------------------------|-------------------|
|----------------------------|-------------------|
|----------------------------|-------------------|
|----------------------------|-2-------(2)-----2-|
|-0---------0----2-------2---|-------------------|


   H       +Q.     E   H       Q.     E
|--------------------|------------------|
|--------------------|---------2------2-|
|--2-------(2)-----1-|------------------|
|--------------------|-4----------------|
|
|  E E E E  E  E E E   E E E E E  E E E
|-----------6--------|---------4----4---|
|-----------7------5-|-4-----4-5----5---|
|--------6-----6-6-0-|-4---4------4---4-|
|-11---8---------8---|---6--------------|
|-13-9---------------|------------------|
|--------------------|------------------|
|
|  H       +Q.     E   H       Q.     E
|--------------------|------------------|
|--------------------|------------------|
|--------------------|------------------|
|--------------------|------------------|
|--2-------(2)-----1-|------------------|
|--------------------|-4-------0------0-|


  H        E.   S +Q      Q.     E E  E +E  E
|---------------6-(6)---|----------------------|
|-4--------4------------|----------------------|
|-----------------------|-------------------1--|
|-----------------------|-0------1-2--2-(2)----|
|
| E  E E E E  E    E  E   E  E E E E  E  E  E
|-----------------------|----------------------|
|-2----2---4-------2----|-5----5---7-----7-----|
|-4----4---3-------3----|-4----4---6-----6-----|
|----4---4----4-------4-|----6---6----8-----8--|
|-----------------------|----------------------|
|-----------------------|----------------------|
|
| Q.     E Q.         E   Q.     E Q.       E
|-----------------------|----------------------|
|-----------------------|----------------------|
|-----------------------|----------------------|
|-----------------------|----------------------|
|-----------------------|----------------------|
|-2------2-2----------2-|-0------0-2--------2--|


  Q.     E Q.     E   Q.     S S  H
|-------------------|-------------------------|
|-------------------|-------------------------|
|-2------4-6------6-|-7------7-8--9-----------|
|-------------------|-------------------------|
|
| E  E E E E  E E E   E  E E E    E   E  E  E
|-------------------|-------------------------|
|-7----7---8----8---|-9----9------------------|
|-8----8---8----8---|-9----9-----11-----11----|
|----9---9----8---8-|----9---9---11-----11----|
|-------------------|----------------13----13-|
|-------------------|-------------------------|
|
| Q.     E Q.     E   Q.     E    Q.        E
|-------------------|-------------------------|
|-------------------|-------------------------|
|-------------------|-------------------------|
|----------1--------|-2-----------4-----------|
|-2---------------1-|--------2--------------4-|
|--------2----------|-------------------------|


   Q.        E  H                 H            E   E +E   E
|------------------------------|----------------------------|
|---------------9--------------|----------------------------|
|------------9-----------------|----------------------------|
|--7---------------------------|--7------------6---6-(6)--6-|
|
|  E   E  E  E  E  S  S  E   E    E   E  E  E  E   E  E   E
|------------------------------|----------------------------|
|------------------------------|----------------------------|
|------------------------------|----------------------------|
|-14-----14----16----16-16-----|-13-----13------------------|
|-14-----14----18-14-18-18--14-|-14-----14----16-----16-----|
|-----14----14-----------------|-----14----14-18--14-18--14-|
|
|  Q.        E  E  S  S +E   E    Q.        E  Q.         E
|------------------------------|----------------------------|
|------------------------------|----------------------------|
|------------------------------|----------------------------|
|---------------4-----4-(4)----|----------------------------|
|--2---------------2---------2-|--2---------2--1----------1-|
|------------2-----------------|----------------------------|


   Q.        E  E   E +E   E   H           E  E +E  S S
|----------------------------|--------------------------|
|--------------------------1-|-2-----------1--1-(1)-1---|
|----------------------------|------------------------2-|
|--4---------4--2---2-(2)----|--------------------------|
|
|  E   E  E  E  E   E  E   E   E   E E  E  E  E  E  E
|----------------------------|--------------------------|
|----------------------------|-------------------7------|
|----------------------------|-9-----9----11-----8------|
|-13-----13----13-----13-----|-9-----9----13--9-----9---|
|-14--11-14-11-14--11-14--11-|----11---11---------------|
|----------------------------|--------------------------|
|
|  Q.        E  Q.         E   Q.       E  Q.       E
|----------------------------|--------------------------|
|----------------------------|--------------------------|
|----------------------------|--------------------------|
|----------------------------|-2--------2--1--------1---|
|----------------------------|--------------------------|
|--4---------4--2----------2-|--------------------------|


  Q.     E  Q    E E   Q.     S S  E  E +E  S S
|--------------------|---------------------------|
|--------6--4--------|--------4------------------|
|-4----------------1-|-2--------2--1--1-(1)------|
|----------------2---|----------------------2-3--|
|
| E  E E E  E E  E E   E  E E E    E  E  E  E
|--------------------|---------------------------|
|-9----9-------------|---------------------------|
|-9----9-------------|-8----8--------------------|
|----9---9-11---11---|-9----9-----11----11-------|
|----------14-9-13-9-|----9---9---13--9-13--9----|
|--------------------|---------------------------|
|
| Q.     E  Q    Q     Q.     E    Q.       E
|--------------------|---------------------------|
|--------------------|---------------------------|
|--------------------|---------------------------|
|--------------------|---------------------------|
|-4------4-----------|-2------2----1--------1----|
|-----------2----2---|---------------------------|


  Q.     E E  E +E  S S   Q.     S S  E  E +E  S S   Q.     S S  E S S  Q
|-----------------------|--------------------------|-------------------------|
|--------6-4--4-(4)-4---|--------------------------|-------------------------|
|---------------------6-|-7--------7--6--6-(6)-6---|--------7-8--9-9---------|
|-4---------------------|--------7---------------7-|-9---------------9--2----|
|
| E  E E E E  E  E  E     E  E E E    E  E  E  E     E  E E E    E E    E E
|-----------------------|--------------------------|-------------------------|
|------4---4-----4------|-5----5------7-----7------|-9----9------------------|
|-8----4---4-----4------|-4----4------8-----8------|-9----9------------------|
|-9--6---6----6-----6---|----6---6-------9-----9---|----9---9---11-----11----|
|-----------------------|--------------------------|------------14-9---13-9--|
|-----------------------|--------------------------|-------------------------|
|
| Q.     E Q.       E     Q.     E   +E  E  Q        H           Q      Q
|-----------------------|--------------------------|-------------------------|
|-----------------------|--------------------------|-------------------------|
|-----------------------|--------------------------|-------------------------|
|-----------------------|--------------------------|-------------------------|
|-----------------------|--------------------------|-------------------------|
|-4------4-2--------2---|-0------0---(0)-----------|-------------2------2----|


  Q   Q      Q.           S S    H            E  E  Q
|------------4------------6-4-|-11-----------11--9-------|
|-----4-----------------------|---------------------8----|
|-2---------------------------|--------------------------|
|-----------------------------|--------------------------|
|
| E E E  E  +S  S S S S S S S    E   E  E  E  E  E  E  E
|---------------------------7-|--9------------9----14-12-|
|-------------------7-----7---|-11--------11-11----14-14-|
|-8------8--(8)---8-----8-----|-11-----11----11----15-15-|
|-9---9-11-(11)-9-----9-------|-----11----------11-------|
|---9-------------------------|--------------------------|
|-----------------------------|--------------------------|
|
| W                              H.                 E  E
|-----------------------------|--------------------------|
|-----------------------------|--------------------------|
|-----------------------------|--------------------------|
|-----------------------------|--------------------------|
|-2---------------------------|--2-----------------------|
|-----------------------------|---------------------2--3-|


   H          +Q.               S S
|------------------------------------|
|--6----------(6)---------------4----|
|---------------------------------6--|
|------------------------------------|
|
|  E  E  E  E  S   S S  S  S  S E
|-11---------------------------------|
|-12-------11-12--11-9-11-12-11-9----|
|-13----13---------------------------|
|----13------------------------------|
|------------------------------------|
|------------------------------------|
|
|  W
|------------------------------------|
|------------------------------------|
|------------------------------------|
|------------------------------------|
|------------------------------------|
|--4---------------------------------|


  E  E   S   E   S  +S   E  S  +S   S E
|----9-------9--11-(11)--------------------|
|--------9--------------11-----------------|
|-7------------------------13-(13)----4----|
|----------------------------------14------|
|
| E  E  +S   E.      E.     S  +S   E    S
|-----------11-------9---------------------|
|-----------12------11-----11-(11)-12---11-|
|-9---------13------11-----11-(11)-11---11-|
|----9--(9)-14-------------11-(11)-13---11-|
|---11-(11)--------------------------------|
|------------------------------------------|
|
| H                  H
|------------------------------------------|
|------------------------------------------|
|------------------------------------------|
|------------------------------------------|
|------------------------------------------|
|-0------------------2---------------------|


   Q  Q    Q.                 S  S    H     Q.          E
|----------4-----------------11-13-|-11--------------------|
|-----4----------------------------|-----------------------|
|--2-------------------------------|-----------------------|
|----------------------------------|--------7-----------6--|
|
|  H      +S   S  S  S  S  S  S  S    H     E.  S  +E   E
|----------------------11-------11-|--9--------19-(19)-21--|
|-12-----(12)-------12-------12----|-11----23--19-(19)-23--|
|-11-----(11)----11-------11-------|-11----23--20-(20)-23--|
|-13-----(13)-13-------------------|-------23--------------|
|----------------------------------|-----------------------|
|----------------------------------|-----------------------|
|
|  W                                  H    +Q.          E
|----------------------------------|-----------------------|
|----------------------------------|-----------------------|
|----------------------------------|-----------------------|
|----------------------------------|-----------------------|
|--2-------------------------------|--2----(2)----------1--|
|----------------------------------|-----------------------|


   Q.           S  S  E.        S +E      S  S
|---------------6--8--9---------8-(8)-----6--4-|
|--6-------------------------------------------|
|----------------------------------------------|
|----------------------------------------------|
|
|  Q    +S   S  S  S  S   S  S  S  S   S  S  S
|-19---(19)-23-19----23------------------------|
|-21---(21)-24-21-21-24--21-21-----------------|
|-20---(20)-------20-----20-20-20-20-----------|
|------------------------21----21-21--21-21-18-|
|------------------------------23-----23-23-18-|
|-------------------------------------23----19-|
|
|  W
|----------------------------------------------|
|----------------------------------------------|
|----------------------------------------------|
|----------------------------------------------|
|----------------------------------------------|
|--4-------------------------------------------|


   E E  S  S  S  S  S  S  S  S  +S   S  S  S    Q.         S  S  E   E     +E     S  S
|----6-11----11-13-15-13-15------------------|------------------------------------------|
|--4------11----------------16-(16)-14-13-11-|------------------------------------------|
|--------------------------------------------|------------------------------------1--1--|
|--------------------------------------------|-12---------12-13-14--14----(14)----------|
|
|  Q    S  S  E     E     E      E      E       Q    S  S  E     E.     S  +S   E    S
|--------------------------------------------|------------------12-----14-(14)----------|
|---------14-------16-----------14-----------|-17---------------12-----14-(14)-14---16--|
|---------15-------15-----------15-----------|-16---------13----13-----15-(15)-15---16--|
|------------16----------16------------16----|-18------14----------------------16---16--|
|-16---16------------------------------------|------14----------------------------------|
|-18---18------------------------------------|------------------------------------------|
|
|  H                Q            Q              H                H
|--------------------------------------------|------------------------------------------|
|--------------------------------------------|------------------------------------------|
|--------------------------------------------|------------------------------------------|
|-------------------4------------4-----------|------------------------------------------|
|--------------------------------------------|------------------------------------------|
|--2-----------------------------------------|--0----------------2----------------------|


    Q.        S S  H             Q.         S  S  Q.             E
|-----------------------------|------------------------------------|
|-----------------------------|------------------------------------|
|---2---------4-5--6----------|------------------------------------|
|-----------------------------|--0----------0--1--2--------------2-|
|
|  +E   E  E  E    E  E  E  E    Q    S  S  S  S  E.  S  +S   E.
|-----------------------------|------------------12--14-(14)-18----|
|-(16)----16------16----------|------------------12--14-(14)-19----|
|-(16)----16------15----18----|-16---------13----13--15-(15)-18----|
|-(16)-16----16------17-20-17-|-18------14----14-------------------|
|-----------------------------|-19---14----------------------------|
|-----------------------------|------------------------------------|
|
|   H              H             H                H
|-----------------------------|------------------------------------|
|-----------------------------|------------------------------------|
|-----------------------------|------------------------------------|
|-----------------------------|------------------------------------|
|---2-------------------------|------------------------------------|
|-----------------------------|--0----------------2----------------|


   Q.      E  H             Q.        E  Q.        E
|-------------4----------|---------------------------|
|----------4-------------|---------------------------|
|--2---------------------|--2---------1--1---------1-|
|------------------------|---------------------------|
|
|  Q    E  E  E  E  E  E    E   E  E  E  E   E  E  E
|-19---------------------|---------------------------|
|-19------------------19-|---------------------------|
|-21---21----20----------|---------------------------|
|------21----21----21----|--------13-----------------|
|---------21----21-------|-18-----14----16-----16----|
|------------------------|-19--14----14-18--14-18-14-|
|
|  W                        Q.        E  Q.        E
|------------------------|---------------------------|
|------------------------|---------------------------|
|------------------------|---------------------------|
|------------------------|---------------------------|
|--2---------------------|--2---------2--1---------1-|
|------------------------|---------------------------|


   Q.        E  E   E +E   S S
|------------------------------|
|------------6--4---4-(4)------|
|--------------------------4-6-|
|--4---------------------------|
|
|  E   E  E  E  E   E  E   E
|------------------------------|
|------------------------------|
|------------------------------|
|-13-----13----13-----13-------|
|-14--11-14-11-14--11-14--11---|
|------------------------------|
|
|  Q.        E  Q.         E
|------------------------------|
|------------------------------|
|------------------------------|
|------------------------------|
|------------------------------|
|--4---------4--2----------2---|


  Q.       S S  E  E +E  S S   Q.       E  Q    E S S
|----------------------------|------------------------|
|----------------------------|------------------------|
|-7----------7--6--6-(6)-6---|---------11--9----------|
|----------7---------------7-|-9----------------2-4-6-|
|
| E   E E  E    E  E  E  E     E   E E  E  E E  E E
|----------------------------|------------------------|
|---------------------7------|-9-----9----------------|
|-9-----9------11-----8------|-9-----9----------------|
|-9-----9------13--9-----9---|----11---11-11---11-----|
|----11---11-----------------|------------14-9-13-9---|
|----------------------------|------------------------|
|
| Q.       E    Q.       E     Q.       E  Q    Q
|----------------------------|------------------------|
|----------------------------|------------------------|
|----------------------------|------------------------|
|-2--------2----1--------1---|------------------------|
|----------------------------|-4--------4-------------|
|----------------------------|-------------2----2-----|


  Q.     S S  E  E +E  S S
|--------------------------|
|----------9---------------|
|--------9-----------------|
|-7-----------6--6-(6)-2-3-|
|
| E  E E E    E  E  E  E
|--------------------------|
|--------------------------|
|-8----8-------------------|
|-9----9-----11----11------|
|----9---9---13--9-13--9---|
|--------------------------|
|
| Q.     E    Q.       E
|--------------------------|
|--------------------------|
|--------------------------|
|--------------------------|
|-2------2----1--------1---|
|--------------------------|


  Q.      E   E  E +E  S S   Q.     S S E  E +E  S S
|--------------------------|-------------------------|
|---------6---4--4-(4)-----|-------------------------|
|----------------------4-6-|-7--------7-6--6-(6)-----|
|-4------------------------|--------7------------7-8-|
|
| E  E E.   S E  E  E  E     E  E E E   E  E  E  E
|-----------7-7------------|-------------------------|
|------4----9-9-----9------|-9----9-----7-----7------|
|-8----4----8-8-----8------|-9----9-----8-----8------|
|-9--6-----------9-----9---|----9---9------9-----9---|
|--------------------------|-------------------------|
|--------------------------|-------------------------|
|
| H           Q.       E     Q.     E   Q.       E
|--------------------------|-------------------------|
|--------------------------|-------------------------|
|--------------------------|-------------------------|
|--------------------------|-2------2---1--------1---|
|--------------------------|-------------------------|
|-4-----------2--------0---|-------------------------|


  Q.       S S  Q      Q       E E  E E  E E  E E
|---------------------------|---------------------|
|---------------------------|---------------------|
|----------7-8--9-----------|---------------------|
|-9--------------------2----|--3-3--3-3--3-3--3-3-|
|
| E   E E  E    E   E  E  E    Q    Q    Q    Q
|---------------------------|----------------10---|
|-9-----9-------------------|-----------12---12---|
|-9-----9------11-----11----|-12---12---12---12---|
|----11---11---11-----11----|-12---12---12--------|
|------------------13----13-|-14---14-------------|
|---------------------------|---------------------|
|
| Q.       E    Q.        E    E E  E E  E E  E E
|---------------------------|---------------------|
|---------------------------|---------------------|
|---------------------------|---------------------|
|---------------------------|---------------------|
|-4--------4----------------|----5----5----5----5-|
|---------------2---------2-|--3----3----3----3---|


   E E  E  E     E  E     E E    E E  E E  E E  E E
|-----------------------------|----------------------|
|--5-5--5--5-----5--5-----5-5-|----------------------|
|-----------------------------|----------------------|
|-----------------------------|--3-3--3-3--3-3--3-3--|
|
|  Q    E.    S  E.    S  Q      Q    Q    Q    Q
|-------------9--9----12-12---|----------------10----|
|-10---10----10-10----14-14---|-----------12---12----|
|--9----9-----9--9----14-14---|-12---12---12---12----|
|-11---11---------------------|-12---12---12---------|
|-----------------------------|-14---14--------------|
|-----------------------------|----------------------|
|
|  E E  E  E     E  E     E E    E E  E E  E E  E E
|-----------------------------|----------------------|
|-----------------------------|----------------------|
|-----------------------------|----------------------|
|-----------------------------|----------------------|
|----4-----4--------4-------4-|----5----5----5----5--|
|--3----3--------3--------3---|--3----3----3----3----|


   E E  E  E     Q        Q      Q.        S S  E   E +E   S S
|-------------------------1---|------------2-------------------|
|--5-5--5--5------------------|--0-----------0-----------------|
|-----------------------------|-----------------4---4-(4)------|
|----------------3------------|----------------------------6-6-|
|
|  Q    E.    S  E.    S  Q      E   E  E  E    E   E  E   E
|-------------9--9----12-12---|--------------------------------|
|-10---10----10-10----14-14---|--------------------------------|
|--9----9-----9--9----14-14---|-11-----11----------------------|
|-11---11---------------------|-12-----12------14-----14-------|
|-----------------------------|-----12----12---16--12-16--12---|
|-----------------------------|--------------------------------|
|
|  E E  E  E     E  E     E E    Q.        E    Q.         E
|-----------------------------|--------------------------------|
|-----------------------------|--------------------------------|
|-----------------------------|--------------------------------|
|-----------------------------|--------------------------------|
|----4-----4--------4-------4-|--5---------5----4----------4---|
|--3----3--------3--------3---|--------------------------------|


   Q.        S S  E   E +E   S S
|--------------------------------|
|--------------9--7---7-(7)--7---|
|------------9-----------------9-|
|--7-----------------------------|
|
|  E   E  E  E    E   E  E   E
|--------------------------------|
|--------------------------------|
|--------------------------------|
|-12-----12-------------11-------|
|-14-----14------16-----12-------|
|-----14----14---17--12-----12---|
|
|  Q.        E    Q.         E
|--------------------------------|
|--------------------------------|
|--------------------------------|
|--------------------------------|
|--2---------2----0----------0---|
|--------------------------------|


   Q.        S  S  E   E +E   S  S
|----------------------------------|
|----------------------------------|
|-10-----------10--9---9-(9)--9----|
|-----------10------------------10-|
|
|  E   E  E  E     E   E  E   E
|----------------------------------|
|----------------------------------|
|----------------------------------|
|-12-----12-------12-----12--------|
|-14--10-14-10----12-----12--------|
|---------------------14-----14----|
|
|  Q.        E     Q.         E
|----------------------------------|
|----------------------------------|
|----------------------------------|
|----------------------------------|
|----------------------------------|
|--3---------3-----2----------2----|


   Q.        E  Q      E  S S    Q.        S  S  E   E +E   S S
|-----------------------------|----------------------------------|
|-----------------------------|----------------------------------|
|-----------14-12------0----0-|-----------12----------------0----|
|-12---------------------12---|-10-----------10--9---9-(9)----6--|
|
|  E   E  E  E  E   E  E  E      E   E  E  E     E   E  E   E
|-----------------------------|----------------------------------|
|-----------------------------|----------------------------------|
|-----------------------------|-11-----11------------------------|
|-14-----14----14-----14------|-12-----12-------14-----14--------|
|-14-----14----16--12-16-12---|-----12----12----16--12-16--12----|
|-----15----15----------------|----------------------------------|
|
|  Q.        E  Q.        E      Q.        E     Q.         E
|-----------------------------|----------------------------------|
|-----------------------------|----------------------------------|
|-----------------------------|----------------------------------|
|-----------------------------|--0---------0---------------------|
|---------------0---------0---|------------------4----------4----|
|--0---------0----------------|----------------------------------|


   Q.        S S  E   E +E   S S
|--------------------------------|
|--------------9--7---7-(7)--7---|
|------------9-----------------9-|
|--7-----------------------------|
|
|  E   E  E  E    E   E  E   E
|--------------------------------|
|--------------------------------|
|--------------------------------|
|-12-----12-------------11-------|
|-14-----14------16-----12-------|
|-----14----14---17--12-----12---|
|
|  Q.        E    Q.         E
|--------------------------------|
|--------------------------------|
|--------------------------------|
|--------------------------------|
|--2---------2----0----------0---|
|--------------------------------|


   Q.        S  S  E   E +E   S  S    Q.        S  S  Q     S E    S
|----------------------------------|---------------------------------|
|-----------12---------------------|---------------------------------|
|-10-----------10--9---9-(9)-------|-----------10-11-12-----0-0----0-|
|----------------------------10-11-|-12------------------------------|
|
|  E   E  E  E     E   E  E   E       E   E  E  E     E  E  E    E
|----------------------------------|---------------------------------|
|----------------------------------|---------------------------------|
|----------------------------------|---------------------------------|
|-12-----12-------12-----12--------|-14-----14-------------14--------|
|-14--10-14-10----12-----12--------|-14-----14-------17----16---12---|
|---------------------14-----14----|-----15----15----19-15-----------|
|
|  Q.        E     Q.         E       Q.        E     Q     Q
|----------------------------------|---------------------------------|
|----------------------------------|---------------------------------|
|----------------------------------|---------------------------------|
|----------------------------------|---------------------------------|
|----------------------------------|------------------0-----0--------|
|--3---------3-----2----------2----|--0---------0--------------------|


   Q.        S S  E  E +E  S S
|------------------------------|
|------------------------------|
|------------------------------|
|--3---------3-4--5--5-(5)-7-9-|
|
|  E   E  E  E    E  E  E  E
|------------------------------|
|-----------------------5------|
|-----------------9-----6------|
|-12-----12------11--7-----7---|
|-14--10-14-10-----------------|
|------------------------------|
|
|  Q.        E    Q.       E
|------------------------------|
|------------------------------|
|------------------------------|
|------------------------------|
|-----------------0--------0---|
|--3---------3-----------------|


   Q.     S S E  E E E   Q.     S S E  E +E  S S
|----------------------|--------------------------|
|------------------4---|--------------------------|
|----------------------|--------------------------|
|-10------0-1-2--2---2-|-3------3-4-5--5-(5)-7-9--|
|
|  E  E E E   E  E E E   E  E E E   E  E  E  E
|----------------------|--------------------------|
|--7----7-----7----7---|------3-----5-----5-------|
|--7----7-----6----6---|-7----4-----6-----6-------|
|-----7---7------8---8-|-9--5---5------7-----7----|
|----------------------|--------------------------|
|----------------------|--------------------------|
|
|  Q.     E   Q.     E   Q.     E   Q.       E
|----------------------|--------------------------|
|----------------------|--------------------------|
|----------------------|--------------------------|
|----------------------|--------------------------|
|--5------5------------|------------0--------0----|
|-------------2------2-|-3------3-----------------|


   Q.      S  S  E   S  S  E  E
|-------------------------------|
|-------------------------------|
|-------------------12-14-16----|
|-10------12-13-14-----------14-|
|
|  E  E E  E     E   E     E  E
|-------------------------------|
|--7----7--------7---------7----|
|--7----7--------6---------6----|
|-----7----7---------8--------8-|
|-------------------------------|
|-------------------------------|
|
|  Q.      E     Q.           E
|-------------------------------|
|-------------------------------|
|-------------------------------|
|-------------------------------|
|--5-------5--------------------|
|----------------2------------2-|


   Q.      S  S  E   E  +E  S S   Q.     S S Q    Q
|-------------------------------|----------------------|
|-------------------------------|----------------------|
|---------------------------2-4-|-5------7-8-9---------|
|-15------15-16-17--17-(17)-----|-----------------2----|
|
|  E  E E  E     E   E   E  E     E  E E E   E  E E E
|-------------------------------|----------------------|
|-------3--------5-------5------|-7----7-----7----7----|
|--7----4--------6-------6------|-7----7-----6----6----|
|--9--5----5---------7------7---|----7---7------8---8--|
|-------------------------------|----------------------|
|-------------------------------|----------------------|
|
|  Q.      E     Q.         E     Q.     E   Q.     E
|-------------------------------|----------------------|
|-------------------------------|----------------------|
|-------------------------------|----------------------|
|-------------------------------|----------------------|
|----------------0----------0---|-5------5-------------|
|--3-------3--------------------|------------2------2--|


  Q    +S  S S S  S  S E  E S S   H        +Q     +S   E.
|-------------------------------|----------------------------|
|------------5-6--7----7--7-----|---------------------11-----|
|----------5---------7------7-8-|-9--------(9)----(9)--------|
|-3----(3)----------------------|----------------------------|
|
| E  E  E    E    E    E  E E     E E E  E  E   E  E       E
|-7-----7---------9-------9-----|-------------------------14-|
|-8-----8--------10------10-----|--------------12-14---------|
|----7-------7---------9----9---|----------11----------------|
|-------------------------------|-----9-11-------------------|
|-------------------------------|---9------------------------|
|-------------------------------|----------------------------|
|
| Q.         E    Q.        E     W
|-------------------------------|----------------------------|
|-------------------------------|----------------------------|
|-------------------------------|----------------------------|
|-------------------------------|----------------------------|
|-----------------0---------0---|----------------------------|
|-3----------3------------------|-2--------------------------|


   W                    W
|-11-----------------|---------------------------|
|--------------------|---------------------------|
|--------------------|---------------------------|
|--------------------|---------------------------|
|
|  E   E  E  E  H       E  E  E  E  E   E  E  E
|--------------18----|---------------------------|
|-14--------14-19----|-------------12-----12-----|
|--------15----------|-----------------11-11-----|
|-----16-------------|----------13-----------13--|
|--------------------|-18----14------------------|
|--------------------|-19-14---------------------|
|
| +W                    H          +Q.        E
|--------------------|---------------------------|
|--------------------|---------------------------|
|--------------------|---------------------------|
|--------------------|---------------------------|
|--------------------|--2----------(2)--------2--|
|-(2)----------------|---------------------------|


  Gtr II
   E E E E  E  E E E   E E E E  E  E E E
|-----------6--------|----------7--------|
|-----------7------5-|-4-----4--9----9---|
|--------6-----6-6-0-|-4---4-------8-8---|
|-11---8---------8---|---4-------------9-|
|-13-9---------------|-------------------|
|--------------------|-------------------|
|
| Gtr III
|  H       +Q.     E   H       +Q.     E
|--------------------|-------------------|
|--------------------|-------------------|
|--------------------|-------------------|
|--------------------|-------------------|
|--2-------(2)-----1-|-------------------|
|--------------------|-4-------(4)-----4-|


  E   E  E  E  E  E  E E   E E E E  E   E  E  E
|------------------------|---------11-----------|
|------------------------|---------12-----12----|
|-9------9---------------|-8-----8-----11-11----|
|-9-----11----11----11---|-9---9-------------13-|
|----11----11-14--9-13-9-|---9------------------|
|------------------------|----------------------|
|
| Q.        E  Q.      E   H       +Q.        E
|------------------------|----------------------|
|------------------------|----------------------|
|------------------------|----------------------|
|------------------------|----------------------|
|------------------------|-2-------(2)--------2-|
|-0---------0--2-------2-|----------------------|


  Gtr I
   W                       H         H
|-----------------------|-13------------------|
|-----------------------|-----------14--------|
|-----------------------|---------------------|
|-----------------------|---------------------|
|
| Gtr II
|  E  E  E  E  E  E E E    E  E E E  E  E E E
|--------------9--------|------------7----7---|
|-------------11--7---8-|--9------9--9--5-9-5-|
|-11-------11-------6-9-|--8----8-------------|
|-11----11------------8-|-----9---------------|
|----13-----------------|---------------------|
|-----------------------|---------------------|
|
| Gtr III
|  H          +Q.     E    Q.     E  Q.     E
|-----------------------|---------------------|
|-----------------------|---------------------|
|-----------------------|---------------------|
|-----------------------|---------------------|
|--2----------(2)-----1-|---------------------|
|-----------------------|--4------4--0------0-|


   Q..        S  S   S  S  S  E  E    Q.      S  S  E   E  +E   S  S
|----------------------------------|----------------------------------|
|-16------------16-----------------|----------------------------------|
|-16---------16-----16----16-------|----------------------------------|
|----------------------14----14-14-|-12------12-13-14--14-(14)-16-18--|
|
|  E   E E E     E      E     E  E    E  E E  E     E   E   E   E
|--7-----7-------6------------6----|--4----4--------6-------6---------|
|--7-----7-------7------------7----|--5----5--------7-------7---------|
|------6---6------------6--------6-|-----4----4---------6-------6-----|
|----------------------------------|----------------------------------|
|----------------------------------|----------------------------------|
|----------------------------------|----------------------------------|
|
|  Q.      E     Q.              E    Q.      E     Q.          E
|----------------------------------|----------------------------------|
|----------------------------------|----------------------------------|
|----------------------------------|----------------------------------|
|----------------------------------|----------------------------------|
|----------------------------------|----------------------------------|
|--2-------2-----2---------------2-|--0-------0-----2-----------2-----|


   Q.      S  S  Q    Q     Q.     S  S  E   E Q
|-------------------------|-9------9-10-11--11-----|
|---------------------1---|------------------------|
|-------------------------|--------------------9---|
|-19------21-22-23--------|------------------------|
|
|  E  E E  E     E  E E E   E  E E E     E   E E E
|--7----7--------6----6---|-4----4-------6-----6---|
|--7----7--------8--4-8-4-|-5----5-------7-----7---|
|-----8----8--------------|----4---4---------6---6-|
|-------------------------|------------------------|
|-------------------------|------------------------|
|-------------------------|------------------------|
|
|  Q.      E     Q.     E   Q.     E     Q.      E
|-------------------------|------------------------|
|-------------------------|------------------------|
|-------------------------|------------------------|
|----------------1------1-|------------------------|
|--2-------2--------------|------------------------|
|-------------------------|-0------0-----2-------2-|


  Q  +S  E.    Q      +S   E.    Q    +S   E.    H
|-------------------------11--|-16---(16)------------------------|
|-9--(9)-------9------(9)-----|-----------16---------------------|
|--------9--------------------|-----------------14---------------|
|-----------------------------|----------------------------------|
|
| Q   Q        Q      +S   E.    Q     Q         E.    S  +E   E
|-7---7--------7------(7)-11--|-12----12--------11----11-(11)-11-|
|-7---7--------7------(7)-12--|-12----12--------12----12-(12)-12-|
|-9---9--------8------(8)-11--|-11----11--------11----11-(11)-11-|
|-----------------------------|----------------------------------|
|-----------------------------|----------------------------------|
|-----------------------------|----------------------------------|
|
| Q   E     E +S  E S +S   E.    Q.           E  E  E     +Q
|-----------------------------|----------------------------------|
|-----------------------------|----------------------------------|
|-----------4-(4)-------------|----------------------------------|
|-----4-----------------------|----------------------------------|
|-2------------------------2--|--2---------------2--2-----(2)----|
|-------------------2-(2)-----|---------------2------------------|


   Q.        S S  E   E +E   S S
|--------------4-----------------|
|------------4-------------------|
|--2-----------------------------|
|-----------------6---6-(6)--2-3-|
|
|  E   E  E  E    E   E  E   E
|--------------------------------|
|--------------------------------|
|--------------------------------|
|-13-----13----------------------|
|-14-----14------16-----16-------|
|-----14----14---18--14-18--14---|
|
|  Q.        E    Q.         E
|--------------------------------|
|--------------------------------|
|--------------------------------|
|--------------------------------|
|--2---------2----1----------1---|
|--------------------------------|


   Q.        E  E   E +E   S S   Q.       S S  E   E  +E  S S
|------------------------------|------------9------------------|
|------------6--4---4-(4)------|----------9--------------------|
|--------------------------4-6-|-7-----------------------------|
|--4---------------------------|--------------11--11-(11)-7-8--|
|
|  E   E  E  E  E   E  E   E     E   E E  E    E   E   E  E
|------------------------------|-------------------------------|
|------------------------------|-----------------------7-------|
|------------------------------|-9-----9------11-------8-------|
|-13-----13----13-----13-------|-9-----9------13---9------9----|
|-14--11-14-11-14--11-14--11---|----11---11--------------------|
|------------------------------|-------------------------------|
|
|  Q.        E  Q.         E     Q.       E    Q.         E
|------------------------------|-------------------------------|
|------------------------------|-------------------------------|
|------------------------------|-------------------------------|
|------------------------------|-2--------2----1----------1----|
|------------------------------|-------------------------------|
|--4---------4--2----------2---|-------------------------------|


  Q.       S S  Q    E S S
|--------------------------|
|--------------------------|
|----------7-8--9------1---|
|-9------------------2---2-|
|
| E   E E  E    E E  E E
|--------------------------|
|-9-----9------------------|
|-9-----9------------------|
|----11---11---11---11-----|
|--------------14-9-13-9---|
|--------------------------|
|
| Q.       E    Q    Q
|--------------------------|
|--------------------------|
|--------------------------|
|--------------------------|
|-4--------4---------------|
|---------------2----2-----|


  Q.     S S  E  E +E  S S   Q.     S S S  S E +E  S S
|--------------------------|---------------------------|
|--------4-----------------|----------6-4--6-4-(4)-----|
|-2--------2--1--1-(1)-----|--------6--------------4-6-|
|----------------------2-3-|-4-------------------------|
|
| E  E E E    E  E  E  E     E  E E E   E    E  E  E
|--------------------------|---------------------------|
|--------------------------|------4-----4-------4------|
|-8----8-------------------|-8----4-----4-------4------|
|-9----9-----11----11------|-9--6---6--------6-----6---|
|----9---9---13--9-13--9---|---------------------------|
|--------------------------|---------------------------|
|
| Q.     E    Q.       E     Q.     E   Q.         E
|--------------------------|---------------------------|
|--------------------------|---------------------------|
|--------------------------|---------------------------|
|--------------------------|---------------------------|
|-2------2----1--------1---|---------------------------|
|--------------------------|-4------4---2----------2---|


  Q.     S S  E  E +E  S S
|--------------------------|
|--------9-----------------|
|-7--------7--6--6-(6)-----|
|----------------------7-8-|
|
| E  E E E    E  E  E  E
|--------------------------|
|-5----5------7-----7------|
|-4----4------8-----8------|
|----6---6-------9-----9---|
|--------------------------|
|--------------------------|
|
| Q.     E   +E  E  Q
|--------------------------|
|--------------------------|
|--------------------------|
|--------------------------|
|--------------------------|
|-0------0---(0)-----------|


  E  S  S  E  S  S  E E  E S S   Q.     S S  E  E +E  S S
|------------------------------|--------------------------|
|----9-10-11-------------------|--------------------------|
|------------------------------|--------9-----------------|
|-9----------12-13-14-2--2-4-6-|-7--------7--6--6-(6)-2-3-|
|
| E  E     E  E     E E  E E     E  E E E    E  E  E  E
|------------------------------|--------------------------|
|-9--------9-------------------|--------------------------|
|-9--------9--------9----9-----|-8----8-------------------|
|---11-------11----11-8-11-8---|-9----9-----11----11------|
|------------------------------|----9---9---13--9-13--9---|
|------------------------------|--------------------------|
|
| H                 Q    Q       Q.     E    Q.       E
|------------------------------|--------------------------|
|------------------------------|--------------------------|
|------------------------------|--------------------------|
|------------------------------|--------------------------|
|------------------------------|-2------2----1--------1---|
|-------------------2----2-----|--------------------------|


  Q.     S S S S E +E  S S   Q.     S S  E  E +E  S S
|--------------------------|--------------------------|
|----------6-4-6-4-(4)-----|--------------------------|
|--------6-------------4-6-|-7--------7--6--6-(6)-6---|
|-4------------------------|--------7---------------7-|
|
| E  E E S S Q      Q        E  E E E    E  E  E  E
|----------7-7-------------|--------------------------|
|------4---9-9------9------|-9----9------7-----7------|
|-8------4-8-8------8------|-9----9------8-----8------|
|-9--6--------------9------|----9---9-------9-----9---|
|--------------------------|--------------------------|
|--------------------------|--------------------------|
|
| Q.     E   Q      Q        Q.     E   +E  E  Q
|--------------------------|--------------------------|
|--------------------------|--------------------------|
|--------------------------|--------------------------|
|--------------------------|--------------------------|
|--------------------------|--------------------------|
|-4------4---2------2------|-0------0---(0)-----------|


  E  S S E.    S  S E    S +S  S  S S
|-----------------8-6-----------------|
|--------------9---------8-(8)--------|
|------------------------------9------|
|-9--7-8-9------------------------4-6-|
|
| E  E   E   E    E    E    E     E
|-------------------------------------|
|-9------9----------------------------|
|-9------9-------11--------11---------|
|---11------11---11--------11---------|
|---------------------13---------13---|
|-------------------------------------|
|
| H               Q         Q
|-------------------------------------|
|-------------------------------------|
|-------------------------------------|
|-------------------------------------|
|-------------------------------------|
|-----------------2---------2---------|


   Q.        S S  E   E +E   S S
|--------------------------------|
|--------------------------------|
|------------9-------------------|
|--7-----------7--6---6-(6)--2-3-|
|
|  E   E  E  E    E   E  E   E
|--------------------------------|
|--------------------------------|
|--------------------------------|
|-13-----13----------------------|
|-14-----14------16-----16-------|
|-----14----14---18--14-18--14---|
|
|  Q.        E    Q.         E
|--------------------------------|
|--------------------------------|
|--------------------------------|
|--------------------------------|
|--2---------2----1----------1---|
|--------------------------------|


   Q.        S S  E   E +E   S S   Q.     S  S  E   E  +E  S S
|--------------------------------|-----------------------------|
|--------------6--4---4-(4)------|--------9--------------------|
|------------6---------------4-6-|-7--------11-----------------|
|--4-----------------------------|-------------11--11-(11)-7-8-|
|
|  E   E  E  E    E   E  E   E     E  E E E     E   E   E  E
|--------------------------------|-----------------------------|
|--------------------------------|-9----9-------7-------7------|
|--------------------------------|-9----9-------8-------8------|
|-13-----13------13-----13-------|----9---9---------9------9---|
|-14--11-14-11---14--11-14--11---|-----------------------------|
|--------------------------------|-----------------------------|
|
|  Q.        E    Q.         E     Q.     E    +E   E   Q
|--------------------------------|-----------------------------|
|--------------------------------|-----------------------------|
|--------------------------------|-----------------------------|
|--------------------------------|-----------------------------|
|--------------------------------|-----------------------------|
|--4---------4----2----------2---|-0------0----(0)-------------|


  E  S  S  S  S  S  S  E  E  S S  S S
|-------------------------------------|
|----9-10-11--------------------------|
|------------11----11--9--------------|
|-9--------------9--------9--2-4--6-2-|
|
| E  E     E     E     E  E  E    E
|-------------------------------------|
|-9--------9--------------------------|
|-9--------9----------11----11--------|
|---11----------11----11----11--------|
|------------------------13------13---|
|-------------------------------------|
|
| H                    Q     Q
|-------------------------------------|
|-------------------------------------|
|-------------------------------------|
|-------------------------------------|
|-------------------------------------|
|----------------------2-----2--------|


   Q.        S S  E   E +E   S S    Q.        E  E   E +E   S S
|--------------4-----------------|-------------------------------|
|------------4-------------------|------------6--4---4-(4)-------|
|--2-----------------------------|--------------------------4-6--|
|-----------------6---6-(6)--2-3-|--4----------------------------|
|
|  E   E  E  E    E   E  E   E      E   E  E  E  E   E  E   E
|--------------------------------|-------------------------------|
|--------------------------------|-------------------------------|
|--------------------------------|-------------------------------|
|-13-----13----------------------|-13-----13----13-----13--------|
|-14-----14------16-----16-------|-14--11-14-11-14--11-14--11----|
|-----14----14---18--14-18--14---|-------------------------------|
|
|  Q.        E    Q.         E      Q.        E  Q.         E
|--------------------------------|-------------------------------|
|--------------------------------|-------------------------------|
|--------------------------------|-------------------------------|
|--------------------------------|-------------------------------|
|--2---------2----1----------1---|-------------------------------|
|--------------------------------|--4---------4--2----------2----|


  Q.     S S  E  E +Q      E  S S +S  S  E  S E.     E  S S
|------------------------|------6-(6)-----------------------|
|--------9---------------|----6----------6--4---------------|
|-7--------7--6--6-(6)---|-4----------4-------4-------------|
|------------------------|---------------------------2--4-6-|
|
| E  E E E    E  E  E  E   E  E    E     E  E     E  E  E
|------------------------|----------------------------------|
|-9----9------7-----7----|-9-------9------------------------|
|-9----9------8-----8----|-9-------9-------11-------11------|
|----9---9-------9-----9-|---11---------11-11-------11------|
|------------------------|-----------------------13----13---|
|------------------------|----------------------------------|
|
| Q.     E   +E  E  Q      H                Q        Q
|------------------------|----------------------------------|
|------------------------|----------------------------------|
|------------------------|----------------------------------|
|------------------------|----------------------------------|
|------------------------|----------------------------------|
|-0------0---(0)---------|------------------2--------2------|


   Q.        S S  E   E +E   S S
|--------------------------------|
|--------------------------------|
|------------9-------------------|
|--7-----------7--6---6-(6)--2-3-|
|
|  E   E  E  E    E   E  E   E
|--------------------------------|
|--------------------------------|
|--------------------------------|
|-13-----13----------------------|
|-14-----14------16-----16-------|
|-----14----14---18--14-18--14---|
|
|  Q.        E    Q.         E
|--------------------------------|
|--------------------------------|
|--------------------------------|
|--------------------------------|
|--2---------2----1----------1---|
|--------------------------------|


   E   S S +S  E.     S  S  E +E   S S
|--------------------------------------|
|--------------6------4--6--4-(4)------|
|----------------------------------4-6-|
|--4---4-4-(4)-------------------------|
|
|  E   E    E      E  E     E  E   E
|--------------------------------------|
|--------------------------------------|
|--------------------------------------|
|-13-------13--------13-------13-------|
|-14--11---14-----11-14----11-14--11---|
|--------------------------------------|
|
|  Q.              E  Q.           E
|--------------------------------------|
|--------------------------------------|
|--------------------------------------|
|--------------------------------------|
|--------------------------------------|
|--4---------------4--2------------2---|


  E  E +E  S S  S  E   S  S E   S   Q.       S S  Q     Q
|------------9--------------------|---------------------------|
|----------9---11--9--------------|---------------------------|
|-7--7-(7)-------------9----------|----------7-8--9-----------|
|------------------------11-7---8-|-9-------------------2-----|
|
| E  E  E  E    E    E    E   E     E   E E  E    E  E  E  E
|---------------------------------|---------------------------|
|-9-----9-------7---------7-------|-9-----9-------------------|
|-9-----9-------8---------8-------|-9-----9------11----11-----|
|----9-----9---------9--------9---|----11---11---11----11-----|
|---------------------------------|-----------------13----13--|
|---------------------------------|---------------------------|
|
| Q.       E   +E    E    Q         H             Q     Q
|---------------------------------|---------------------------|
|---------------------------------|---------------------------|
|---------------------------------|---------------------------|
|---------------------------------|---------------------------|
|---------------------------------|---------------------------|
|-0--------0---(0)----------------|---------------2-----2-----|


   Q.        S S  E   E +E   S S
|--------------4-----------------|
|------------4-------------------|
|--2-----------------------------|
|-----------------6---6-(6)--2-3-|
|
|  E   E  E  E    E   E  E   E
|--------------------------------|
|--------------------------------|
|--------------------------------|
|-13-----13----------------------|
|-14-----14------16-----16-------|
|-----14----14---18--14-18--14---|
|
|  Q.        E    Q.         E
|--------------------------------|
|--------------------------------|
|--------------------------------|
|--------------------------------|
|--2---------2----1----------1---|
|--------------------------------|


   Q.        E  E   E +E   S S   Q.     S S  E  E +Q
|------------------------------|------------------------|
|------------6--4---4-(4)------|--------9---------------|
|--------------------------4-6-|-7--------7--6--6-(6)---|
|--4---------------------------|------------------------|
|
|  E   E  E  E  E   E  E   E     E  E E E    E  E  E  E
|------------------------------|------------------------|
|------------------------------|-9----9------7-----7----|
|------------------------------|-9----9------8-----8----|
|-13-----13----13-----13-------|----9---9-------9-----9-|
|-14--11-14-11-14--11-14--11---|------------------------|
|------------------------------|------------------------|
|
|  Q.        E  Q.         E     Q.     E   +E  E  Q
|------------------------------|------------------------|
|------------------------------|------------------------|
|------------------------------|------------------------|
|------------------------------|------------------------|
|------------------------------|------------------------|
|--4---------4--2----------2---|-0------0---(0)---------|


  E  S S +S  S  E  S E.     E  S S    Q.        S S  E   E +E   S S
|------6-(6)-----------------------|--------------------------------|
|----6----------6--4---------------|--------------------------------|
|-4----------4-------4-------------|------------9-------------------|
|---------------------------2--4-6-|--7-----------7--6---6-(6)--2-3-|
|
| E  E    E     E  E     E  E  E      E   E  E  E    E   E  E   E
|----------------------------------|--------------------------------|
|-9-------9------------------------|--------------------------------|
|-9-------9-------11-------11------|--------------------------------|
|---11---------11-11-------11------|-13-----13----------------------|
|-----------------------13----13---|-14-----14------16-----16-------|
|----------------------------------|-----14----14---18--14-18--14---|
|
| H                Q        Q         Q.        E    Q.         E
|----------------------------------|--------------------------------|
|----------------------------------|--------------------------------|
|----------------------------------|--------------------------------|
|----------------------------------|--------------------------------|
|----------------------------------|--2---------2----1----------1---|
|------------------2--------2------|--------------------------------|


   E   S S +S  E.     S  S  E +E   S S
|---------------------------------------|
|--------------6------4--6--4-(4)-------|
|----------------------------------4-6--|
|--4---4-4-(4)--------------------------|
|
|  E   E    E      E  E     E  E   E
|---------------------------------------|
|---------------------------------------|
|---------------------------------------|
|-13-------13--------13-------13--------|
|-14--11---14-----11-14----11-14--11----|
|---------------------------------------|
|
|  Q.              E  Q.           E
|---------------------------------------|
|---------------------------------------|
|---------------------------------------|
|---------------------------------------|
|---------------------------------------|
|--4---------------4--2------------2----|


  E  E +E  S S  S  E   S  S E   S
|------------9--------------------*|
|----------9---11--9--------------*|
|-7--7-(7)-------------9----------*|
|------------------------11-7---8-*|
|
| E  E  E  E    E    E    E   E
|---------------------------------*|
|-9-----9-------7---------7-------*|
|-9-----9-------8---------8-------*|
|----9-----9---------9--------9---*|
|---------------------------------*|
|---------------------------------*|
|
| Q.       E   +E    E    Q
|---------------------------------*|
|---------------------------------*|
|---------------------------------*|
|---------------------------------*|
|---------------------------------*|
|-0--------0---(0)----------------*|



Duration Legend
---------------
W - whole; H - half; Q - quarter; E - 8th; S - 16th; T - 32nd; X - 64th; a - acciaccatura
+ - note tied to previous; . - note dotted; .. - note double dotted
Uncapitalized letters represent notes that are staccato (1/2 duration)
Irregular groupings are notated above the duration line
Duration letters will always appear directly above the note/fret number it represents the
duration for.  Duration letters with no fret number below them represent rests.  Multi-
bar rests are notated in the form Wxn, where n is the number of bars to rest for.  Low
melody durations appear below the staff

Tablature Legend
----------------
 h   - hammer-on
 p   - pull-off
 b   - bend
 pb  - pre-bend
 r   - bend release (if no number after the r, then release immediately)
 /\  - slide into or out of (from/to "nowhere")
 s   - legato slide
 S   - shift slide
 - natural harmonic
[n]  - artificial harmonic
n(n) - tapped harmonic
 ~   - vibrato
 tr  - trill
 T   - tap
 TP  - trem. picking
 PM  - palm muting
\n/  - tremolo bar dip; n = amount to dip
 \n  - tremolo bar down
 n/  - tremolo bar up
/n\  - tremolo bar inverted dip
 =   - hold bend; also acts as connecting device for hammers/pulls
 <> - volume swell (louder/softer)
 x   - on rhythm slash represents muted slash
 o   - on rhythm slash represents single note slash

Misc Legend
-----------
 |  - bar
||  - double bar
||o - repeat start
o|| - repeat end
*|  - double bar (ending)
 :  - bar (freetime)
 $  - Segno
 &  - Coda
Tempo markers -  = BPM(8/16=s8/s16), where s8 = swing 8ths, s16 = swing 16ths

comments
We did not receive enough feedback on this tab! Please rate:
print report bad tab
1 2 3 4 5
I want to post or [tab]
guest
You may want to rate the tab now too:
select rating
Please do not post tabs as comments. Select "correction" instead!