Oops, an error
Loading. Please wait.

Ill Kill You Tab

ver2
ver2

Whole song

More versions @911Tabs.com
580 views 3 this week
1 commentread comment
1 2 3 4 5
excellent!
x 1
Autoscroll
+/-
esc
set tempo
stop
Contributor
Tuning
D# G# C# F# A# D#
WARNING: You are trying to view
                                    content from Ultimate-Guitar.com
                                    in an unauthorized application,
                                    which is prohibited.

                                    Please use an official Ultimate
                                    Guitar Tabs application for iPhone,
                                    iPad or Android to access legitimate
                                    chords, guitar, bass, and drum tabs
                                    from Ultimate-Guitar.com database.

                                    Type "ultimate guitar tabs" in Apple
                                    App Store's or Android Market's
                                    search to find the application.
#----------------------------------PLEASE NOTE---------------------------------#
#This file is the author's own work and represents their interpretation of the #
#song. You may only use this file for private study, scholarship, or research. #
#------------------------------------------------------------------------------#

I'LL KILL YOU
As recorded by X Japan


        



Gtr I (Eb Ab Db Gb Bb Eb) - 'Guitar 1'
Gtr II (Eb Ab Db Gb Bb Eb) - 'Guitar 2'
Gtr III (Eb Ab Db Gb Bb Eb) - 'Guitar 3'

  Q=195
 4/4
  Gtr II
  W          E S S S S S S  S  S S S S S S S   E S S S S S S  E  E +E  E
|----------|---------------------------------|---------------------------|
|----------|---------------------------------|---------------------------|
|----------|---------------------------------|-------------------------2-|
|----------|-2-2-2-2-2-2-2--2--2-2-2-2-2-2-2-|-4-2-2-2-2-2-2--0--4-(4)---|
|----------|---------------------------------|---------------------------|
|----------|---------------------------------|---------------------------|
|
| Gtr III
| W          Q     E   E   +E    E   E   E     Q     E   E   +E  E  E  E
|----------|---------------------------------|---------------------------|
|----------|---------------------8-----------|-------------------8-------|
|----------|-9-----7---9---(9)-------7-------|-9-----7---9---(9)----7----|
|----------|-9-----7---9---(9)-----------7---|-9-----7---9---(9)-------7-|
|----------|---------------------------------|---------------------------|
|----------|---------------------------------|---------------------------|


  E E +E  E  E  E +E  E   E E +E  E  E  E +E  E   E S S S S S S  E  E E E
|-----------------------|-----------------------|-------------------------|
|-----------------------|------------1--0-(0)---|-------------------------|
|-0----------0----------|-0-------------------2-|-0-----------------4-2---|
|---4-(4)-2-----4-(4)-2-|---4-(4)-2-------------|---2-2-2-2-2-2--2------4-|
|-----------------------|-----------------------|-------------------------|
|-----------------------|-----------------------|-------------------------|
|
| Q    E  E +E  E  E  E   Q    E  E +E  E  E  E   Q     E   E   +E  E E E
|-----------------------|-----------------------|-------------------------|
|---------------8-------|---------------8-------|-------------------8-----|
|-9----7--9-(9)----7----|-9----7--9-(9)----7----|-9-----7---9---(9)---7---|
|-9----7--9-(9)-------7-|-9----7--9-(9)-------7-|-9-----7---9---(9)-----7-|
|-----------------------|-----------------------|-------------------------|
|-----------------------|-----------------------|-------------------------|


  E S S S S S S  E  E E E   E S S S S S S  E  E E E   E S S S S S S  E  E E E
|-------------------------|-------------------------|-------------------------|
|-------------------------|-------------------------|-------------------------|
|-2-----------------4-2---|-4-----------------4-2---|-4-----------------4-2---|
|---4-4-4-4-4-4--4------4-|---5-5-5-5-5-5--5------4-|---5-5-5-5-5-5--5------4-|
|-------------------------|-------------------------|-------------------------|
|-------------------------|-------------------------|-------------------------|
|
| Q     E   E   +E  E E E   Q     E   E   +E  E E E   Q     E   E   +E  E E E
|-------------------------|-------------------------|-------------------------|
|-------------------8-----|-------------------8-----|-------------------8-----|
|-9-----7---9---(9)---7---|-9-----7---9---(9)---7---|-9-----7---9---(9)---7---|
|-9-----7---9---(9)-----7-|-9-----7---9---(9)-----7-|-9-----7---9---(9)-----7-|
|-------------------------|-------------------------|-------------------------|
|-------------------------|-------------------------|-------------------------|


  E S S S S S S S S S S S S S S    E S S S S S S E E   +E    E
|-------------------------------|--------------------------------|
|-------------------------------|--------------------------------|
|-4-----------------------------|----------------------------2---|
|-2-2-2-2-2-2-2-4-4-4-4-5-5-5-5-|--4-4-4-4-4-4-4---4---(4)-------|
|-------------------------------|----------------5---------------|
|-------------------------------|--------------------------------|
|
| E S S S S S S E   S S S S S S    E S S S S S S E S S  S  S S S
|-------------------------------|--------------------------------|
|-------------------------------|--------------------------------|
|-------------------------------|--------------------------------|
|-9-------------9---------------|--7-------------7---------------|
|-7-7-7-7-7-7-7-7---7-7-7-7-7-7-|----5-5-5-5-5-5-5-5-5--5--5-5-5-|
|-------------------------------|-10-----------------------------|


  E E   +E    E   E E   +E    E     E E   +E    E   E E   +E    E
|---------------------------------|---------------------------------|
|---------------------------------|---------------------------------|
|-0---------------0---------------|-0---------------0---------------|
|---4---(4)---2-----4---(4)---2---|---4---(4)---2-----4---(4)---2---|
|---------------------------------|---------------------------------|
|---------------------------------|---------------------------------|
|
| E S S  S  S S S E S S  S  S S S   E S S  S  S S S E S S  S  S S S
|---------------------------------|---------------------------------|
|---------------------------------|---------------------------------|
|---------------------------------|---------------------------------|
|-5---------------5---------------|-5---------------5---------------|
|---7-7--7--7-7-7---7-7--7--7-7-7-|---7-7--7--7-7-7---7-7--7--7-7-7-|
|---------------------------------|---------------------------------|


  E S S S S S S S S S S S S S S    E S S S S S S E E   +E    E
|-------------------------------|--------------------------------|
|-------------------------------|--------------------------------|
|-4-----------------------------|----------------------------2---|
|-2-2-2-2-2-2-2-4-4-4-4-5-5-5-5-|--4-4-4-4-4-4-4---4---(4)-------|
|-------------------------------|----------------5---------------|
|-------------------------------|--------------------------------|
|
| E S S S S S S E   S S S S S S    E S S S S S S E S S  S  S S S
|-------------------------------|--------------------------------|
|-------------------------------|--------------------------------|
|-------------------------------|--------------------------------|
|-9-------------9---------------|--7-------------7---------------|
|-7-7-7-7-7-7-7-7---7-7-7-7-7-7-|----5-5-5-5-5-5-5-5-5--5--5-5-5-|
|-------------------------------|-10-----------------------------|


  E E   +E    E   E E   +E    E     E S S S S S S S S S S Q
|---------------------------------|-------------------------------|
|---------------------------------|-------------------------------|
|-0---------------0---------------|-------------------------------|
|---4---(4)---2-----4---(4)---2---|-2-2-2-4-4-4-4-5-5-5-5-7-------|
|---------------------------------|-------------------------------|
|---------------------------------|-------------------------------|
|
| E S S  S  S S S E S S  S  S S S   E S S S S S S E   S S S S S S
|---------------------------------|-------------------------------|
|---------------------------------|-------------------------------|
|---------------------------------|-------------------------------|
|-5---------------5---------------|-5-------------5---------------|
|---7-7--7--7-7-7---7-7--7--7-7-7-|---7-7-7-7-7-7-----7-7-7-7-7-7-|
|---------------------------------|-------------------------------|


   Q.         E    E E   +Q           E  E     +E      E     E.  S  +E   E
|----------------------------------|---------------------------------------|
|----------------------------------|---------------------------------------|
|----------------------------------|---------------------------------------|
|--7---------------7---------------|--9----------------9-----9--10-(10)--9-|
|-------------8------8---(8)-------|----10----(10)-------------------------|
|----------------------------------|---------------------------------------|
|
|  E  S S S S S S  E S S  S  S S S    E  S  S   S   S  S  S  E.  S  +E   E
|----------------------------------|---------------------------------------|
|----------------------------------|---------------------------------------|
|----------------------------------|---------------------------------------|
|-10--------------10---------------|-12------------------------------------|
|--8--8-8-8-8-8-8--8-8-8--8--8-8-8-|-10-10-10--10--10-10-10-10--12-(12)-10-|
|----------------------------------|---------------------------------------|


   Q.         E    E E   +Q           E  E     +E      E     E.  S  +E   E
|----------------------------------|---------------------------------------|
|----------------------------------|---------------------------------------|
|----------------------------------|---------------------------------------|
|--7---------------7---------------|--9----------------9-----9--10-(10)--9-|
|-------------8------8---(8)-------|----10----(10)-------------------------|
|----------------------------------|---------------------------------------|
|
|  E  S S S S S S  E S S  S  S S S    E  S  S   S   S  S  S  E.  S  +E   E
|----------------------------------|---------------------------------------|
|----------------------------------|---------------------------------------|
|----------------------------------|---------------------------------------|
|-10--------------10---------------|-12------------------------------------|
|-----8-8-8-8-8-8--8-8-8--8--8-8-8-|-10-10-10--10--10-10-10-10--12-(12)-10-|
|-13-------------------------------|---------------------------------------|


   Q.         E    E E   +Q
|----------------------------------|
|----------------------------------|
|----------------------------------|
|--7---------------7---------------|
|-------------8------8---(8)-------|
|----------------------------------|
|
|  E  S S S S S S  E S S  S  S S S
|----------------------------------|
|----------------------------------|
|----------------------------------|
|-10--------------10---------------|
|-----8-8-8-8-8-8--8-8-8--8--8-8-8-|
|-13-------------------------------|


   E  E     +E      E     E.  S  +E   E    E.  S  +E   E  E.  S  +E   E
|---------------------------------------|-------------------------------|
|---------------------------------------|-------------------------------|
|---------------------------------------|-------------------------------|
|--9----------------9-----9--10-(10)--9-|-10--10-(10)-10-10--10-(10)-10-|
|----10----(10)-------------------------|-------------------------------|
|---------------------------------------|-------------------------------|
|
|  E  S  S   S   S  S  S  E.  S  +E   E    E.  S  +E   E  E.  S  +E   E
|---------------------------------------|-------------------------------|
|---------------------------------------|-------------------------------|
|---------------------------------------|-------------------------------|
|-12------------------------------------|-------------------------------|
|-10-10-10--10--10-10-10-10--12-(12)-10-|-12--12-(12)-12-12--12-(12)-12-|
|---------------------------------------|-------------------------------|


   H               H                  E S S S S S S S S S S  S  S  S  S
|----------------------------------|------------------------------------|
|----------------------------------|------------------------------------|
|----------------------------------|------------------------------------|
|-10-------------------------------|--9---------------------------------|
|----------------------------------|----7-7-7-7-7-7-9-9-9-9-10-10-10-10-|
|----------------------------------|-12---------------------------------|
|
|  S S S S S S S S S S S S S S S S    E S S S S S S E   S S  S  S  S  S
|----------------------------------|------------------------------------|
|----------------------------------|------------------------------------|
|----------------------------------|------------------------------------|
|----------------------------------|--9-------------9-------------------|
|--0-0-0-0-2-2-2-2-3-3-3-3-5-5-5-5-|--7-7-7-7-7-7-7-7---7-7--7--7--7--7-|
|----------------------------------|------------------------------------|


   E S S S S S S  E E   +E    E     E E   +E    E   E E   +E    E
|---------------------------------|---------------------------------|
|---------------------------------|---------------------------------|
|---------------------------------|-----------------0---------------|
|-----------------------------7---|-5-4---(4)---2-----4---(4)---2---|
|--9-9-9-9-9-9-9----9---(9)-------|---------------------------------|
|----------------10---------------|---------------------------------|
|
|  E S S S S S S  E S S  S  S S S   E S S  S  S S S E S S  S  S S S
|---------------------------------|---------------------------------|
|---------------------------------|---------------------------------|
|---------------------------------|---------------------------------|
|--7--------------7---------------|-5---------------5---------------|
|----5-5-5-5-5-5--5-5-5--5--5-5-5-|---7-7--7--7-7-7---7-7--7--7-7-7-|
|-10------------------------------|---------------------------------|


  E E   +E    E   E E   +E    E     E S S S S S S S S S S S S S S
|---------------------------------|-------------------------------|
|---------------------------------|-------------------------------|
|-0---------------0---------------|-4-----------------------------|
|---4---(4)---2-----4---(4)---2---|-2-2-2-2-2-2-2-4-4-4-4-5-5-5-5-|
|---------------------------------|-------------------------------|
|---------------------------------|-------------------------------|
|
| E S S  S  S S S E S S  S  S S S   E S S S S S S E   S S S S S S
|---------------------------------|-------------------------------|
|---------------------------------|-------------------------------|
|---------------------------------|-------------------------------|
|-5---------------5---------------|-9-------------9---------------|
|---7-7--7--7-7-7---7-7--7--7-7-7-|-7-7-7-7-7-7-7-7---7-7-7-7-7-7-|
|---------------------------------|-------------------------------|


   E S S S S S S E E   +E    E     E E   +E    E   E E   +E    E
|--------------------------------|---------------------------------|
|--------------------------------|---------------------------------|
|----------------------------2---|-0---------------0---------------|
|--4-4-4-4-4-4-4---4---(4)-------|---4---(4)---2-----4---(4)---2---|
|----------------5---------------|---------------------------------|
|--------------------------------|---------------------------------|
|
|  E S S S S S S E S S  S  S S S   E S S  S  S S S E S S  S  S S S
|--------------------------------|---------------------------------|
|--------------------------------|---------------------------------|
|--------------------------------|---------------------------------|
|--7-------------7---------------|-5---------------5---------------|
|----5-5-5-5-5-5-5-5-5--5--5-5-5-|---7-7--7--7-7-7---7-7--7--7-7-7-|
|-10-----------------------------|---------------------------------|


  E S S S S S S S S S S Q          Q.         E    E E   +Q
|-------------------------------|----------------------------------|
|-------------------------------|----------------------------------|
|-------------------------------|----------------------------------|
|-2-2-2-4-4-4-4-5-5-5-5-7-------|--7---------------7---------------|
|-------------------------------|-------------8------8---(8)-------|
|-------------------------------|----------------------------------|
|
| E S S S S S S E   S S S S S S    E  S S S S S S  E S S  S  S S S
|-------------------------------|----------------------------------|
|-------------------------------|----------------------------------|
|-------------------------------|----------------------------------|
|-5-------------5---------------|-10--------------10---------------|
|---7-7-7-7-7-7-----7-7-7-7-7-7-|--8--8-8-8-8-8-8--8-8-8--8--8-8-8-|
|-------------------------------|----------------------------------|


   E  E     +E      E     E.  S  +E   E
|---------------------------------------|
|---------------------------------------|
|---------------------------------------|
|--9----------------9-----9--10-(10)--9-|
|----10----(10)-------------------------|
|---------------------------------------|
|
|  E  S  S   S   S  S  S  E.  S  +E   E
|---------------------------------------|
|---------------------------------------|
|---------------------------------------|
|-12------------------------------------|
|-10-10-10--10--10-10-10-10--12-(12)-10-|
|---------------------------------------|


   Q.         E    E E   +Q           E  E     +E      E     E.  S  +E   E
|----------------------------------|----------------------------------------|
|----------------------------------|----------------------------------------|
|----------------------------------|----------------------------------------|
|--7---------------7---------------|--9----------------9-----9--10-(10)--9--|
|-------------8------8---(8)-------|----10----(10)--------------------------|
|----------------------------------|----------------------------------------|
|
|  E  S S S S S S  E S S  S  S S S    E  S  S   S   S  S  S  E.  S  +E   E
|----------------------------------|----------------------------------------|
|----------------------------------|----------------------------------------|
|----------------------------------|----------------------------------------|
|-10--------------10---------------|-12-------------------------------------|
|-----8-8-8-8-8-8--8-8-8--8--8-8-8-|-10-10-10--10--10-10-10-10--12-(12)-10--|
|-13-------------------------------|----------------------------------------|


   Q.         E    E E   +Q
|----------------------------------|
|----------------------------------|
|----------------------------------|
|--7---------------7---------------|
|-------------8------8---(8)-------|
|----------------------------------|
|
|  E  S S S S S S  E S S  S  S S S
|----------------------------------|
|----------------------------------|
|----------------------------------|
|-10--------------10---------------|
|-----8-8-8-8-8-8--8-8-8--8--8-8-8-|
|-13-------------------------------|


   E  E     +E      E     E.  S  +E   E    E.  S  +E   E  E.  S  +E   E
|---------------------------------------|-------------------------------|
|---------------------------------------|-------------------------------|
|---------------------------------------|-------------------------------|
|--9----------------9-----9--10-(10)--9-|-10--10-(10)-10-10--10-(10)-10-|
|----10----(10)-------------------------|-------------------------------|
|---------------------------------------|-------------------------------|
|
|  E  S  S   S   S  S  S  E.  S  +E   E    E.  S  +E   E  E.  S  +E   E
|---------------------------------------|-------------------------------|
|---------------------------------------|-------------------------------|
|---------------------------------------|-------------------------------|
|-12------------------------------------|-------------------------------|
|-10-10-10--10--10-10-10-10--12-(12)-10-|-12--12-(12)-12-12--12-(12)-12-|
|---------------------------------------|-------------------------------|


   H    H        E S S  E S S E  E E  E   E S S  E S S E  E E  E
|--------------|------------------------|------------------------|
|--------------|------------------------|------------------------|
|--------------|------------------------|------------------------|
|-10-----------|--------9---------------|--------9---------------|
|--------------|----------------10-9----|----------------10-9----|
|--------------|-0-0-0-12-0-0-0------10-|-0-0-0-12-0-0-0------10-|
|
|  H    Q   Q    E S S  E S S E  E E  E   E S S  E S S E  E E  E
|--------------|------------------------|------------------------|
|--------------|------------------------|------------------------|
|--------------|------------------------|------------------------|
|--------------|------------------------|--------9---------------|
|-12-------12--|-------14-------10-9----|----------------10-9----|
|--------------|-0-0-0-12-0-0-0------10-|-0-0-0-12-0-0-0------10-|


  E S S  E S S E  E E  E    Q   E  E  +E   E E  E   E S S  E S S E  E E  E
|------------------------|------------------------|------------------------|
|------------------------|------------------------|------------------------|
|------------------------|------------------------|------------------------|
|--------9---------------|------------------------|--------9---------------|
|----------------10-9-10-|-12--10-12-(12)-10-9----|----------------10-9----|
|-0-0-0-12-0-0-0---------|---------------------10-|-0-0-0-12-0-0-0------10-|
|
| E S S  E S S E  E E  E    Q   E  E  +E   E E  E   E S S  E S S E  E E  E
|------------------------|------------------------|------------------------|
|------------------------|------------------------|------------------------|
|------------------------|------------------------|------------------------|
|--------9---------------|------------------------|--------9---------------|
|----------------10-9----|-12--10-12-(12)-10-9----|----------------10-9----|
|-0-0-0-12-0-0-0------10-|---------------------10-|-0-0-0-12-0-0-0------10-|


  E S S  E S S E  E E  E   E S S  E S S E  E E  E
|------------------------|------------------------|
|------------------------|------------------------|
|------------------------|------------------------|
|--------9---------------|--------9---------------|
|----------------10-9----|----------------10-9-10-|
|-0-0-0-12-0-0-0------10-|-0-0-0-12-0-0-0---------|
|
| E S S  E S S E  E E  E   E S S  E S S E  E E  E
|------------------------|------------------------|
|------------------------|------------------------|
|------------------------|------------------------|
|--------9---------------|--------9---------------|
|----------------10-9----|----------------10-9----|
|-0-0-0-12-0-0-0------10-|-0-0-0-12-0-0-0------10-|


   Q   E  E  +E   E E  E    S E  S E  E  +E  E E E
|------------------------|--------------------------|
|------------------------|--------------------------|
|------------------------|-----------12-(12)--------|
|-10---9-10-(10)--9-7----|------12-------------2----|
|----------------------9-|-10----------------2---2--|
|------------------------|--------------------------|
|
|  Q   E  E  +E   E E  E    S E  S E  E  +Q    E E
|------------------------|--------------------------|
|------------------------|--------------------------|
|------------------------|--------------------------|
|------------------------|--9----9----9--(9)--------|
|-12--10-12-(12)-10-9----|---------------------7----|
|---------------------10-|-12---12---12-(12)-----7--|


  E S S S S S S E S S S S S S   E S S S S S S E S S S S S S
|-----------------------------|-----------------------------|
|-----------------------------|-----------------------------|
|-----------------------------|-----------------------------|
|-----------------------------|-----------------------------|
|-3-3-3-3-3-3-3-3-3-3-3-3-3-3-|-5-5-5-5-5-5-5-5-5-5-5-5-5-5-|
|-----------------------------|-----------------------------|
|
| E S S S S S S E S S S S S S   E S S S S S S E S S S S S S
|-----------------------------|-----------------------------|
|-----------------------------|-----------------------------|
|-----------------------------|-----------------------------|
|-----------------------------|-----------------------------|
|-3-------------3-------------|-5-------------5-------------|
|-1-1-1-1-1-1-1-1-1-1-1-1-1-1-|-3-3-3-3-3-3-3-3-3-3-3-3-3-3-|


  E S S S S S S E S S S S S S   E S S S S S S Q   Q
|-----------------------------|-----------------------|
|-----------------------------|-----------------------|
|-----------------------------|-----------------------|
|-----------------------------|-----------------------|
|-7-7-7-7-7-7-7-7-7-7-7-7-7-7-|-7-7-7-7-7-7-7-7---5---|
|-----------------------------|-----------------------|
|
| E S S S S S S E S S S S S S   E S S S S S S E E E E
|-----------------------------|-----------------------|
|-----------------------------|-----------------------|
|-----------------------------|-----------------------|
|-2-------------2-------------|-2---------------------|
|-0-0-0-0-0-0-0-0-0-0-0-0-0-0-|-0-0-0-0-0-0-0-3-2-0---|
|-----------------------------|---------------------3-|


  E S S S S S S E S S S S S S   E S S S S S S E S S S S S S
|-----------------------------|-----------------------------|
|-----------------------------|-----------------------------|
|-----------------------------|-----------------------------|
|-----------------------------|-----------------------------|
|-3-3-3-3-3-3-3-3-3-3-3-3-3-3-|-5-5-5-5-5-5-5-5-5-5-5-5-5-5-|
|-----------------------------|-----------------------------|
|
| E S S S S S S E S S S S S S   E S S S S S S E S S S S S S
|-----------------------------|-----------------------------|
|-----------------------------|-----------------------------|
|-----------------------------|-----------------------------|
|-----------------------------|-----------------------------|
|-3-------------3-------------|-5-------------5-------------|
|-1-1-1-1-1-1-1-1-1-1-1-1-1-1-|-3-3-3-3-3-3-3-3-3-3-3-3-3-3-|


  E S S S S S S E S S S S S S
|-----------------------------|
|-----------------------------|
|-----------------------------|
|-----------------------------|
|-7-7-7-7-7-7-7-7-7-7-7-7-7-7-|
|-----------------------------|
|
| E S S S S S S E S S S S S S
|-----------------------------|
|-----------------------------|
|-----------------------------|
|-2-------------2-------------|
|-0-0-0-0-0-0-0-0-0-0-0-0-0-0-|
|-----------------------------|


  Q  E E +E  E E E   E S S S S S S E S S S S S S
|------------------|------------------------------|
|------------------|------------------------------|
|-5--4-2-(2)-0-----|------------------------------|
|--------------3-5-|------------------------------|
|------------------|-3-3-3-3-3-3-3-3-3-3-3-3-3-3--|
|------------------|------------------------------|
|
| Q  E E +E  E E E   E S S S S S S E S S S S S S
|------------------|------------------------------|
|-5--3-1-(1)-0-----|------------------------------|
|--------------2-0-|------------------------------|
|------------------|------------------------------|
|------------------|-3-------------3--------------|
|------------------|-1-1-1-1-1-1-1-1-1-1-1-1-1-1--|


  E S S S S S S E S S S S S S   E S S S S S S E S S S S S S
|-----------------------------|-----------------------------|
|-----------------------------|-----------------------------|
|-----------------------------|-----------------------------|
|-----------------------------|-----------------------------|
|-5-5-5-5-5-5-5-5-5-5-5-5-5-5-|-7-7-7-7-7-7-7-7-7-7-7-7-7-7-|
|-----------------------------|-----------------------------|
|
| E S S S S S S E S S S S S S   E S S S S S S E S S S S S S
|-----------------------------|-----------------------------|
|-----------------------------|-----------------------------|
|-----------------------------|-----------------------------|
|-----------------------------|-2-------------2-------------|
|-5-------------5-------------|-0-0-0-0-0-0-0-0-0-0-0-0-0-0-|
|-3-3-3-3-3-3-3-3-3-3-3-3-3-3-|-----------------------------|


  E S S S S S S Q   Q     H             E E   +E    E
|-----------------------|-------------------------------|
|-----------------------|-------------------------------|
|-----------------------|-------------------------------|
|-----------------------|-------------------------------|
|-7-7-7-7-7-7-7-5---7---|-8-------------8-7---(7)---8---|
|-----------------------|-------------------------------|
|
| E S S S S S S E E E E   E S S S S S S E S S  S  S S S
|-----------------------|-------------------------------|
|-----------------------|-------------------------------|
|-----------------------|-------------------------------|
|-2---------------------|-------------------------------|
|-0-0-0-0-0-0-0-3-2-0---|-3-------------3---------------|
|---------------------3-|-1-1-1-1-1-1-1-1-1-1--1--1-1-1-|


   H              E E   +E     E
|----------------------------------|
|----------------------------------|
|----------------------------------|
|----------------------------------|
|-10-------------10-8---(8)---10---|
|----------------------------------|
|
|  E S S S S S S  E S S  S  S  S S
|----------------------------------|
|----------------------------------|
|----------------------------------|
|----------------------------------|
|--5--------------5----------------|
|--3-3-3-3-3-3-3--3-3-3--3--3--3-3-|


   E.  S  +E   E  E.  S  +E   E    E.  S  +E   E  H
|-------------------------------|----------------------|
|-------------------------------|----------------------|
|-------------14-------------14-|-------------14-------|
|-----14-(14)--------14-(14)----|-----14-(14)----------|
|-12-------------12-------------|-12-------------12----|
|-------------------------------|----------------------|
|
|  E.  S  +E   E  E.  S  +E   E    E.  S  +E   E  H
|-------------------------------|----------------------|
|-------------------------------|----------------------|
|-------------------------------|----------------------|
|--2---2--(2)--2--2---2--(2)--2-|--2---2--(2)--2--2----|
|--0---0--(0)--0--0---0--(0)--0-|--0---0--(0)--0--0----|
|-------------------------------|----------------------|


   E.  S  +E   E  E.  S  +E   E    E.  S  +E   E  H
|-------------------------------|----------------------|
|-------------------------------|----------------------|
|-------------14-------------14-|-------------14-------|
|-----14-(14)--------14-(14)----|-----14-(14)----------|
|-12-------------12-------------|-12-------------12----|
|-------------------------------|----------------------|
|
|  E.  S  +E   E  E.  S  +E   E    E.  S  +E   E  H
|-------------------------------|----------------------|
|-------------------------------|----------------------|
|-------------------------------|----------------------|
|--2---2--(2)--2--2---2--(2)--2-|--2---2--(2)--2--2----|
|--0---0--(0)--0--0---0--(0)--0-|--0---0--(0)--0--0----|
|-------------------------------|----------------------|


   E.  S  +E   E  E.  S  +E   E    E.  S  +E   E  H
|-------------------------------|----------------------|
|-------------------------------|----------------------|
|-------------14-------------14-|-------------14-------|
|-----14-(14)--------14-(14)----|-----14-(14)----------|
|-12-------------12-------------|-12-------------12----|
|-------------------------------|----------------------|
|
|  E.  S  +E   E  E.  S  +E   E    E.  S  +E   E  H
|-------------------------------|----------------------|
|-------------------------------|----------------------|
|-------------------------------|----------------------|
|--2---2--(2)--2--2---2--(2)--2-|--2---2--(2)--2--2----|
|--0---0--(0)--0--0---0--(0)--0-|--0---0--(0)--0--0----|
|-------------------------------|----------------------|


                                                   Gtr I
   E.  S  +E   E S S E E E   W          W          Q  E E +H
|--------------------------|----------|----------|---------------|
|--------------------------|----------|----------|---------------|
|-------------14-----------|----------|----------|---------------|
|-----14-(14)----2-2-2-2-2-|----------|----------|------0-(0)----|
|-12-------------0-0-0-0-0-|----------|----------|---------------|
|--------------------------|----------|----------|---------------|
|
|  E.  S  +E   E S S E E E   W          W          W
|--------------------------|----------|----------|---------------|
|--------------------------|----------|----------|---------------|
|--------------------------|----------|----------|---------------|
|--2---2--(2)--2-2-2-2-2-2-|----------|----------|---------------|
|--0---0--(0)--0-0-0-0-0-0-|----------|----------|---------------|
|--------------------------|----------|----------|---------------|


  E  E    +E     E    Q      S  S  S  S    S  S  E   E   E   H
|---10---(10)---10---10-----12-15-14-12-|-14-12-10---9---7---5----------|
|---------------------------------------|-------------------------------|
|---------------------------------------|-------------------------------|
|---------------------------------------|-------------------------------|
|---------------------------------------|-------------------------------|
|---------------------------------------|-------------------------------|
|
| Gtr II
| E  S S   S  S  S S  E S S  S  S  S  S    E     S S S S S S E E +E  E
|---------------------------------------|-------------------------------|
|---------------------------------------|-------------------------------|
|-4-------------------4-----------------|----------------------------2--|
|-2--2-2---2--2--2-2--2-2-2--2--2--2--2-|--4-------------------4-(4)----|
|---------------------------------------|--------5-5-5-5-5-5-5----------|
|---------------------------------------|-------------------------------|


  S S S S S S S S S S S S S S S S   S S S S S S S S H
|-5-4-3-2---------5-4-3-2---------|-------------------------------|
|---------5-4-3-2---------5-4-3-2-|-5-4-3-2-5-4-3-2---------------|
|---------------------------------|-----------------2-------------|
|---------------------------------|-------------------------------|
|---------------------------------|-------------------------------|
|---------------------------------|-------------------------------|
|
| E   S S S S S S E   S S S S S S   E   S S S S S S E S S S S S S
|---------------------------------|-------------------------------|
|---------------------------------|-------------------------------|
|-4---------------4---------------|-4---------------4-------------|
|-2---2-2-2-2-2-2-2---2-2-2-2-2-2-|-2---2-2-2-2-2-2-2-2-2-2-2-2-2-|
|---------------------------------|-------------------------------|
|---------------------------------|-------------------------------|


  E.   S +E    E   E.   S +E    E     E.   S +E     E   E.   S +E   E
|-----------------------------------|------5-(5)---10--------9-(9)-10--|
|--------------5----------------8---|-------------------8--------------|
|------3-(3)------------6-(6)-------|-7--------------------------------|
|-2----------------5----------------|----------------------------------|
|-----------------------------------|----------------------------------|
|-----------------------------------|----------------------------------|
|
| E  S S  S  S S S E  S S  S  S S S   E  S S  S  S  S S E  E   +E   E
|-----------------------------------|----------------------------------|
|-----------------------------------|----------------------------------|
|-4----------------4----------------|-------------------------------2--|
|-2--2-2--2--2-2-2-2--2-2--2--2-2-2-|-4--------------------4---(4)-----|
|-----------------------------------|----5-5--5--5--5-5-5--------------|
|-----------------------------------|----------------------------------|


   E  E    S  S  S  S  E  E    S  S  S  S    E  E    S  S  S  S  H
|----10---15-14-13-12----14---17-16-15-14-|-12-15---19-18-17-15-------|
|-12------------------12------------------|---------------------15----|
|-----------------------------------------|---------------------------|
|-----------------------------------------|---------------------------|
|-----------------------------------------|---------------------------|
|-----------------------------------------|---------------------------|
|
|  E  S S  S  S  S  S  E  S S  S  S  S  S    E  S S  S  S  S  S  H
|-----------------------------------------|---------------------------|
|-----------------------------------------|----------------------3----|
|--4-------------------4------------------|--4-------------------0----|
|--2--2-2--2--2--2--2--2--2-2--2--2--2--2-|--2--2-2--2--2--2--2-------|
|-----------------------------------------|---------------------------|
|-----------------------------------------|---------------------------|
|
| Gtr III
|  W                                         W
|-----------------------------------------|---------------------------|
|-----------------------------------------|---------------------------|
|-----------------------------------------|---------------------------|
|-----------------------------------------|---------------------------|
|-----------------------------------------|---------------------------|
|-----------------------------------------|---------------------------|


   E   S  S  E      S  S  E   S  S  E      S  S
|-17--------15-----------17--------15-----------|
|------------------13-13------------------13-13-|
|-----17-17------------------17-17--------------|
|-----------------------------------------------|
|-----------------------------------------------|
|-----------------------------------------------|
|
|  E.     S +S  E.        E.     S +S  E.
|-----------------------------------------------|
|--------------------------------------1--------|
|--2-----------------------------2-(2)----------|
|---------3-(3)-----------3---------------------|
|---------------3-------------------------------|
|-----------------------------------------------|
|
|  E   S  S  S  S   S  S  E   S  S  S  S   S  S
|-----------------------------------------------|
|-----------------------------------------------|
|--5----------------------5---------------------|
|--3---3--3--3--3---3--3--3---3--3--3--3---3--3-|
|-----------------------------------------------|
|-----------------------------------------------|


   E   S  S  E      S  S  E   S  S  E   S  S    E   S  S  E      S  S  E   S  S  E      S  S
|-19--------17-----------19--------17--------|-17--------15-----------17--------15-----------|
|------------------15-15---------------15-15-|------------------13-13------------------13-13-|
|-----19-19------------------19-19-----------|-----17-17------------------17-17--------------|
|--------------------------------------------|-----------------------------------------------|
|--------------------------------------------|-----------------------------------------------|
|--------------------------------------------|-----------------------------------------------|
|
|  E.     S +S  E.        E.     S +E   E       E.     S +S  E.        E.     S +S  E.
|--------------------------------------------|-----------------------------------------------|
|--0-----------------------------------------|--------------------------------------1--------|
|---------0-(0)-----------0------2-(2)--4----|--2-----------------------------2-(2)----------|
|---------------0----------------------------|---------3-(3)-----------3---------------------|
|--------------------------------------------|---------------3-------------------------------|
|--------------------------------------------|-----------------------------------------------|
|
|  E   S  S  S  S   S  S  E.     S +E   E       E   S  S  S  S   S  S  E   S  S  S  S   S  S
|--------------------------------------------|-----------------------------------------------|
|--3-----------------------------------------|-----------------------------------------------|
|--0-----------------------------------------|--5----------------------5---------------------|
|------5--5--5--5---5--5--5------7-(7)--5----|--3---3--3--3--3---3--3--3---3--3--3--3---3--3-|
|--------------------------------------------|-----------------------------------------------|
|--------------------------------------------|-----------------------------------------------|


   E   S  S  E      S  S  E   S  S  E   S  S
|-19--------17-----------19--------17----------|
|------------------15-15---------------15-15---|
|-----19-19------------------19-19-------------|
|----------------------------------------------|
|----------------------------------------------|
|----------------------------------------------|
|
|  E.     S +S  E.        E.     S +E   E
|----------------------------------------------|
|--0-------------------------------------------|
|---------0-(0)-----------0------2-(2)--4------|
|---------------0------------------------------|
|----------------------------------------------|
|----------------------------------------------|
|
|  E   S  S  S  S   S  S  E.     S +E   E
|----------------------------------------------|
|--3-------------------------------------------|
|--0-------------------------------------------|
|------5--5--5--5---5--5--5------7-(7)--5------|
|----------------------------------------------|
|----------------------------------------------|


   E   S  S  E      S  S  E   S  S  E      S  S
|-17--------15-----------17--------15-----------|
|------------------13-13------------------13-13-|
|-----17-17------------------17-17--------------|
|-----------------------------------------------|
|-----------------------------------------------|
|-----------------------------------------------|
|
|  E.     S +S  E.        E.     S +S  E.
|-----------------------------------------------|
|--------------------------------------1--------|
|--2-----------------------------2-(2)----------|
|---------3-(3)-----------3---------------------|
|---------------3-------------------------------|
|-----------------------------------------------|
|
|  E   S  S  S  S   S  S  E   S  S  S  S   S  S
|-----------------------------------------------|
|-----------------------------------------------|
|--5----------------------5---------------------|
|--3---3--3--3--3---3--3--3---3--3--3--3---3--3-|
|-----------------------------------------------|
|-----------------------------------------------|


   E   S  S  E      S  S  E   S  S  E   S  S    E.  S  +E   E  E.  S  +E   E
|-19--------17-----------19--------17--------|-------------------------------|
|------------------15-15---------------15-15-|-------------------------------|
|-----19-19------------------19-19-----------|-------------------------------|
|--------------------------------------------|-17--17-(17)-17-17--17-(17)-17-|
|--------------------------------------------|-------------------------------|
|--------------------------------------------|-------------------------------|
|
|  E.     S +S  E.        E.     S +E   E       E.  S  +E   E  E.  S  +E   E
|--------------------------------------------|--6---6--(6)--6--6---6--(6)--6-|
|--0-----------------------------------------|-------------------------------|
|---------0-(0)-----------0------2-(2)--4----|-------------------------------|
|---------------0----------------------------|-------------------------------|
|--------------------------------------------|-------------------------------|
|--------------------------------------------|-------------------------------|
|
|  E   S  S  S  S   S  S  E.     S +E   E       E.  S  +E   E  E.  S  +E   E
|--------------------------------------------|-------------------------------|
|--3-----------------------------------------|-------------------------------|
|--0-----------------------------------------|-------------------------------|
|------5--5--5--5---5--5--5------7-(7)--5----|--7---7--(7)--7--7---7--(7)--7-|
|--------------------------------------------|-------------------------------|
|--------------------------------------------|-------------------------------|


   W                                      W
|--------------------------------------|------------------------------------|
|--------------------------------------|------------------------------------|
|--------------------------------------|------------------------------------|
|-17-----------------------------------|------------------------------------|
|--------------------------------------|------------------------------------|
|--------------------------------------|------------------------------------|
|
|  W                                      E S S S S S S S S S S  S  S  S  S
|--6-----------------------------------|------------------------------------|
|--------------------------------------|------------------------------------|
|--------------------------------------|------------------------------------|
|--------------------------------------|--9---------------------------------|
|--------------------------------------|--7-7-7-7-7-7-7-9-9-9-9-10-10-10-10-|
|--------------------------------------|------------------------------------|
|
|  S S S S S S S S S S S S  S  S  S  S    E S S S S S S E   S S  S  S  S  S
|--------------------------------------|------------------------------------|
|--------------------------------------|------------------------------------|
|--------------------------------------|------------------------------------|
|--------------------------------------|--9-------------9-------------------|
|--------------------------------------|----7-7-7-7-7-7-7---7-7--7--7--7--7-|
|--5-5-5-5-7-7-7-7-8-8-8-8-10-10-10-10-|-12---------------------------------|


  Gtr II
   E S S S S S S  E E   +E    E     E E   +E    E   E E   +E    E
|---------------------------------|---------------------------------|
|---------------------------------|---------------------------------|
|---------------------------------|-----------------0---------------|
|-----------------------------7---|-5-4---(4)---2-----4---(4)---2---|
|--9-9-9-9-9-9-9----9---(9)-------|---------------------------------|
|----------------10---------------|---------------------------------|
|
| Gtr III
|  E S S S S S S  E S S  S  S S S   E S S  S  S S S E S S  S  S S S
|---------------------------------|---------------------------------|
|---------------------------------|---------------------------------|
|---------------------------------|---------------------------------|
|--7--------------7---------------|-5---------------5---------------|
|----5-5-5-5-5-5--5-5-5--5--5-5-5-|---7-7--7--7-7-7---7-7--7--7-7-7-|
|-10------------------------------|---------------------------------|


  E E   +E    E   E E   +E    E     E S S S S S S S S S S S S S S
|---------------------------------|-------------------------------|
|---------------------------------|-------------------------------|
|-0---------------0---------------|-4-----------------------------|
|---4---(4)---2-----4---(4)---2---|-2-2-2-2-2-2-2-4-4-4-4-5-5-5-5-|
|---------------------------------|-------------------------------|
|---------------------------------|-------------------------------|
|
| E S S  S  S S S E S S  S  S S S   E S S S S S S E   S S S S S S
|---------------------------------|-------------------------------|
|---------------------------------|-------------------------------|
|---------------------------------|-------------------------------|
|-5---------------5---------------|-9-------------9---------------|
|---7-7--7--7-7-7---7-7--7--7-7-7-|-7-7-7-7-7-7-7-7---7-7-7-7-7-7-|
|---------------------------------|-------------------------------|


   E S S S S S S E E   +E    E     E E   +E    E   E E   +E    E
|--------------------------------|---------------------------------|
|--------------------------------|---------------------------------|
|----------------------------2---|-0---------------0---------------|
|--4-4-4-4-4-4-4---4---(4)-------|---4---(4)---2-----4---(4)---2---|
|----------------5---------------|---------------------------------|
|--------------------------------|---------------------------------|
|
|  E S S S S S S E S S  S  S S S   E S S  S  S S S E S S  S  S S S
|--------------------------------|---------------------------------|
|--------------------------------|---------------------------------|
|--------------------------------|---------------------------------|
|--7-------------7---------------|-5---------------5---------------|
|----5-5-5-5-5-5-5-5-5--5--5-5-5-|---7-7--7--7-7-7---7-7--7--7-7-7-|
|-10-----------------------------|---------------------------------|


  E S S S S S S S S S S Q          Q.         E    E E   +Q
|-------------------------------|----------------------------------|
|-------------------------------|----------------------------------|
|-------------------------------|----------------------------------|
|-2-2-2-4-4-4-4-5-5-5-5-7-------|--7---------------7---------------|
|-------------------------------|-------------8------8---(8)-------|
|-------------------------------|----------------------------------|
|
| E S S S S S S E   S S S S S S    E  S S S S S S  E S S  S  S S S
|-------------------------------|----------------------------------|
|-------------------------------|----------------------------------|
|-------------------------------|----------------------------------|
|-5-------------5---------------|-10--------------10---------------|
|---7-7-7-7-7-7-----7-7-7-7-7-7-|--8--8-8-8-8-8-8--8-8-8--8--8-8-8-|
|-------------------------------|----------------------------------|


   E  E     +E      E     E.  S  +E   E
|---------------------------------------|
|---------------------------------------|
|---------------------------------------|
|--9----------------9-----9--10-(10)--9-|
|----10----(10)-------------------------|
|---------------------------------------|
|
|  E  S  S   S   S  S  S  E.  S  +E   E
|---------------------------------------|
|---------------------------------------|
|---------------------------------------|
|-12------------------------------------|
|-10-10-10--10--10-10-10-10--12-(12)-10-|
|---------------------------------------|


   Q.         E    E E   +Q           E  E     +E      E     E.  S  +E   E
|----------------------------------|----------------------------------------|
|----------------------------------|----------------------------------------|
|----------------------------------|----------------------------------------|
|--7---------------7---------------|--9----------------9-----9--10-(10)--9--|
|-------------8------8---(8)-------|----10----(10)--------------------------|
|----------------------------------|----------------------------------------|
|
|  E  S S S S S S  E S S  S  S S S    E  S  S   S   S  S  S  E.  S  +E   E
|----------------------------------|----------------------------------------|
|----------------------------------|----------------------------------------|
|----------------------------------|----------------------------------------|
|-10--------------10---------------|-12-------------------------------------|
|-----8-8-8-8-8-8--8-8-8--8--8-8-8-|-10-10-10--10--10-10-10-10--12-(12)-10--|
|-13-------------------------------|----------------------------------------|


   Q.         E    E E   +Q
|----------------------------------|
|----------------------------------|
|----------------------------------|
|--7---------------7---------------|
|-------------8------8---(8)-------|
|----------------------------------|
|
|  E  S S S S S S  E S S  S  S S S
|----------------------------------|
|----------------------------------|
|----------------------------------|
|-10--------------10---------------|
|-----8-8-8-8-8-8--8-8-8--8--8-8-8-|
|-13-------------------------------|


   E  E     +E      E     E.  S  +E   E    E.  S  +E   E  E.  S  +E   E
|---------------------------------------|-------------------------------|
|---------------------------------------|-------------------------------|
|---------------------------------------|-------------------------------|
|--9----------------9-----9--10-(10)--9-|-10--10-(10)-10-10--10-(10)-10-|
|----10----(10)-------------------------|-------------------------------|
|---------------------------------------|-------------------------------|
|
|  E  S  S   S   S  S  S  E.  S  +E   E    E.  S  +E   E  E.  S  +E   E
|---------------------------------------|-------------------------------|
|---------------------------------------|-------------------------------|
|---------------------------------------|-------------------------------|
|-12------------------------------------|-------------------------------|
|-10-10-10--10--10-10-10-10--12-(12)-10-|-12--12-(12)-12-12--12-(12)-12-|
|---------------------------------------|-------------------------------|


   E.  S  +E   E  H       W           W           W
|----------------------|-----------|-----------|-------|
|----------------------|-----------|-----------|--8----|
|----------------------|--9--------|-11--------|--0----|
|-10--10-(10)-10-10----|-----------|-----------|-------|
|----------------------|-----------|--9--------|-------|
|----------------------|-12--------|-----------|-------|
|
|  E.  S  +E   E  H       W           W           W
|----------------------|-----------|-----------|-------|
|----------------------|-----------|-----------|-------|
|----------------------|-----------|-----------|-------|
|----------------------|-----------|-12--------|-10----|
|-12--12-(12)-12-12----|-14--------|-12--------|-10----|
|----------------------|-12--------|-----------|-------|


   +H      Q   Q     W           W           W
|-----------------|-----------|-----------|-------|
|--(8)-----8--10--|-----------|-----------|--8----|
|--(0)-----0------|--9--------|-11--------|--0----|
|--------------7--|-----------|-----------|-------|
|-----------------|--7--------|--9--------|-------|
|-----------------|-----------|-----------|-------|
|
|  +H      Q   Q     W           W           W
|-----------------|-----------|-----------|-------|
|-----------------|-----------|-----------|-------|
|-----------------|-----------|-----------|-------|
|-(10)----10--12--|-----------|-12--------|-10----|
|-(10)----10--12--|-14--------|-12--------|-10----|
|-----------------|-12--------|-----------|-------|


  Gtr I
    W                Q        E     E     E     E  E     E
|-----------------|----------------------------------------|
|-----------------|----------------------------------------|
|-----------------|----------------------------------------|
|-----------------|----------------------------17-16-------|
|-----------------|-------------------------------------17-|
|-----------------|-19-------17----19----------------------|
|
| Gtr II
|  +H      Q   Q     Q        E     E     E     E  E     E
|-----------------|----------------------------------------|
|--(8)-----8--10--|----------------------------------------|
|--(0)-----0------|-----------------------------4--2-------|
|--------------7--|--5--------4-----5--------------------4-|
|-----------------|----------------------------------------|
|-----------------|----------------------------------------|
|
| Gtr III
|  +H      Q   Q     E  S  S  S  S  S  S  S  S  E  S  S  E
|-----------------|----------------------------------------|
|-----------------|----------------------------------------|
|-----------------|----------------------------------------|
|-(10)----10--12--|----------------------------14-------14-|
|-(10)----10--12--|----------------------------14-------14-|
|-----------------|-12-12-12-12-12-12-12-12-12----12-12----|


   Q        E     E     E     E  E     E
|-----------------------------------------|
|-----------------------------------------|
|-----------------------------------------|
|----------------------------17-16--------|
|-------------------------------------17--|
|-19-------17----19-----------------------|
|
|  Q        E     E     E     E  E     E
|-----------------------------------------|
|-----------------------------------------|
|-----------------------------4--2--------|
|--5--------4-----5--------------------4--|
|-----------------------------------------|
|-----------------------------------------|
|
|  E  S  S  S  S  S  S  S  S  E  S  S  E
|-----------------------------------------|
|-----------------------------------------|
|-----------------------------------------|
|----------------------------12-------12--|
|----------------------------12-------12--|
|-10-10-10-10-10-10-10-10-10----10-10-----|


   Q      E    E   E    E  E    E    Q      E    E   E    E  E    E
|---------------------------------|----------------------------------|
|---------------------------------|----------------------------------|
|---------------------------------|----------------------------------|
|----------------------17-16------|----------------------17-16-------|
|------------------------------17-|------------------------------17--|
|-19-----17---19------------------|-19-----17---19-------------------|
|
|  Q      E    E   E    E  E    E    Q      E    E   E    E  E    E
|---------------------------------|----------------------------------|
|---------------------------------|----------------------------------|
|-----------------------4--2------|-----------------------4--2-------|
|--5------4----5----------------4-|--5------4----5----------------4--|
|---------------------------------|----------------------------------|
|---------------------------------|----------------------------------|
|
|  E S S  S S  S S S S  E  S S  E    E S S  S S  S S S S  E  S S  E
|---------------------------------|----------------------------------|
|---------------------------------|----------------------------------|
|---------------------------------|----------------------------------|
|----------------------10------10-|----------------------10------10--|
|----------------------10------10-|----------------------10------10--|
|--8-8-8--8-8--8-8-8-8-----8-8----|--8-8-8--8-8--8-8-8-8-----8-8-----|


   Q        E     E     E     E  E     E
|----------------------------------------|
|----------------------------------------|
|----------------------------------------|
|----------------------------17-16-------|
|-------------------------------------17-|
|-19-------17----19----------------------|
|
|  Q        E     E     E     E  E     E
|----------------------------------------|
|----------------------------------------|
|-----------------------------4--2-------|
|--5--------4-----5--------------------4-|
|----------------------------------------|
|----------------------------------------|
|
|  E  S  S  S  S  S  S  S  S  E  S  S  E
|----------------------------------------|
|----------------------------------------|
|----------------------------------------|
|----------------------------14-------14-|
|----------------------------14-------14-|
|-12-12-12-12-12-12-12-12-12----12-12----|


   Q        E     E     E     E  E     E
|-----------------------------------------|
|-----------------------------------------|
|-----------------------------------------|
|----------------------------17-16--------|
|-------------------------------------17--|
|-19-------17----19-----------------------|
|
|  Q        E     E     E     E  E     E
|-----------------------------------------|
|-----------------------------------------|
|-----------------------------4--2--------|
|--5--------4-----5--------------------4--|
|-----------------------------------------|
|-----------------------------------------|
|
|  E  S  S  S  S  S  S  S  S  E  S  S  E
|-----------------------------------------|
|-----------------------------------------|
|-----------------------------------------|
|----------------------------12-------12--|
|----------------------------12-------12--|
|-10-10-10-10-10-10-10-10-10----10-10-----|


   Q      E    E   E    E  E    E
|---------------------------------|
|---------------------------------|
|---------------------------------|
|----------------------17-16------|
|------------------------------17-|
|-19-----17---19------------------|
|
|  Q      E    E   E    E  E    E
|---------------------------------|
|---------------------------------|
|-----------------------4--2------|
|--5------4----5----------------4-|
|---------------------------------|
|---------------------------------|
|
|  E S S  S S  S S S S  E  S S  E
|---------------------------------|
|---------------------------------|
|---------------------------------|
|----------------------10------10-|
|----------------------10------10-|
|--8-8-8--8-8--8-8-8-8-----8-8----|


   Q      E    E   E    E  E    E    Q  E E +E   E  E  E
|---------------------------------|-----------------------|
|---------------------------------|-----------------------|
|---------------------------------|-----------------------|
|----------------------17-16------|--2--4-5-(5)-----------|
|------------------------------17-|--------------7--9-10--|
|-19-----17---19------------------|-----------------------|
|
|  Q      E    E   E    E  E    E    Q  E E +E   E  E  E
|---------------------------------|-----------------------|
|---------------------------------|-----------------------|
|-----------------------4--2------|-----------------------|
|--5------4----5----------------4-|--5--7-9-(9)-----------|
|---------------------------------|-------------10-12-14--|
|---------------------------------|-----------------------|
|
|  E S S  S S  S S S S  E  S S  E    W
|---------------------------------|-----------------------|
|---------------------------------|-----------------------|
|---------------------------------|--9--------------------|
|----------------------10------10-|-----------------------|
|----------------------10------10-|-----------------------|
|--8-8-8--8-8--8-8-8-8-----8-8----|-12--------------------|


   Q   E  E  +E   E  E  E    Q   E  E  +E   E  E  E
|-------------------------|-------------------------|
|-------------------------|-------------------------|
|-------------------------|-------------------------|
|-------------------------|-------------------------|
|--9--10-12-(12)----------|-------------------------|
|----------------14-15-17-|-15--17-19-(19)-15-17-19-|
|
|  Q   E  E  +E   E  E  E    Q   E  E  +E   E  E  E
|-------------------------|-------------------------|
|-------------------------|-------------------------|
|-------------------------|-------------------------|
|-------------------------|-------------------------|
|-12--14-15-(15)----------|-------------------------|
|----------------17-19-20-|-19--20-22-(22)-19-20-22-|
|
|  W                         W
|-------------------------|-------------------------|
|-------------------------|--8----------------------|
|-11----------------------|--0----------------------|
|-------------------------|-------------------------|
|--9----------------------|-------------------------|
|-------------------------|-------------------------|


   Q    E  E  +E   E  E  E    Q   E  E  +E   E  E  E
|--------------------------|-------------------------|
|--------------------------|-------------------------|
|--------------------------|-------------------------|
|--------------------------|-------------------------|
|-----------------------12-|-------------------------|
|-15---17-19-(19)-15-14----|-12--14-15-(15)-12-14-15-|
|
|  Q    E  E  +E   E  E  E    Q   E  E  +E   E  E  E
|--------------------------|-------------------------|
|--------------------------|-------------------------|
|--------------------------|--0----------------------|
|--------------------------|-------------------------|
|--------------------------|-------------------------|
|-19---20-22-(22)-24-22-20-|-----17-19-(19)-15-17-19-|
|
| +H           Q      Q       W
|--------------------------|-------------------------|
|-(8)----------8-----10----|-------------------------|
|-(0)----------0-----------|--9----------------------|
|---------------------7----|-------------------------|
|--------------------------|--7----------------------|
|--------------------------|-------------------------|


   Q   E  E  +E   E  E  E    Q   E  E  +E   E  E  E    Q    E  E  +E   E  E  E
|-------------------------|-------------------------|--------------------------|
|-------------------------|-------------------------|--------------------------|
|-------------------------|-------------------------|--------------------------|
|-------------------------|-------------------------|--------------------------|
|-------------------------|-------------------------|-----------------------12-|
|-14--15-17-(17)-14-15-17-|-15--17-19-(19)-15-17-19-|-15---17-19-(19)-15-14----|
|
|  Q   E  E  +E   E  E  E    Q   E  E  +E   E  E  E    Q    E  E  +E   E  E  E
|-------------------------|-------------------------|--------------------------|
|-------------------------|-------------------------|--------------------------|
|-------------------------|-------------------------|--------------------------|
|---------------
comments
We did not receive enough feedback on this tab! Please rate:
1 2 3 4 5
1 comment total.
0 reply
Minaru wrote on November 17 2008, 11:13 am

X Japan at their finest. I couldn't imagine the pain a drummer would have trying to do a cover of this song. It's fairly simple to play until the solo. This song can be either intermediate or advanced.

Great chart! :)

I want to post or [tab]
guest
You may want to rate the tab now too:
select rating
Please do not post tabs as comments. Select "correction" instead!