Oops, an error
Loading. Please wait.

Jade Bass Tab

ver1
ver1

Whole song

Interactive

More versions @911Tabs.com
1,166 views 6 this week
no commentswrite comment
1 2 3 4 5
excellent!
x 1
Autoscroll
+/-
esc
set tempo
stop
Contributor
Hey! There's an official Ultimate Guitar app which is ideal
for learning songs when you're away from computer. Get the app
WARNING: You are trying to view
                                    content from Ultimate-Guitar.com
                                    in an unauthorized application,
                                    which is prohibited.

                                    Please use an official Ultimate
                                    Guitar Tabs application for iPhone,
                                    iPad or Android to access legitimate
                                    chords, guitar, bass, and drum tabs
                                    from Ultimate-Guitar.com database.

                                    Type "ultimate guitar tabs" in Apple
                                    App Store's or Android Market's
                                    search to find the application.
Intro
G|----------------------------------------------------------|
D|----------------------------------------------------------|
A|----------------------------------------------------------|
E|-33333333-3--3--3333333-3--3--3333333-3--3--3-4-3-4-3-1-4-|

G|----------------------------------------------------------|
D|----------------------------------------------------------|
A|----------------------------------------------------------|
E|-33333333-3--3--3333333-3--3--3333333-3--3--3-4-3-6-3-4---|

G|----------------------------------------------------------|
D|----------------------------------------------------------|
A|----------------------------------------------------------|
E|-33333333-3--3--3333333-3--3--3333333-3--3--3-4-3-4-3-1-4-|

G|--------------------------------------------|
D|--------------------------------------------|
A|--------------------------------------------|
E|-33333333-3--3--3333333-3--3--3333333-3--3--|

Pre Verse
0:24
G|-----------------------------------------------------------------|
D|-----------------------------------------------------------------|
A|-----------------------------------------------------------------|
E|-3---4-3-4-3-4-3---3-4-3-4-3-4---3---4-3-4-3-4-3---3-4-3-4-3-1-4-|

G|-----------------------------------------------------------------|-------------------|
D|-----------------------------------------------------------------|o-----------------o|
A|-----------------------------------------------------------------|o-----------------o|
E|-3---4-3-4-3-4-3---3-4-3-4-3-4---3---4-3-4-3-4-3---3-4-3-6-3-4---|--3-3-----3-3------|

Verse
0:41
G|-----------------------------------------------------------------|
D|-----------------------------------------------------------------|
A|-----------------------------------------------------------------|
E|-3---4-3-4-3-4-3---3-4-3-4-3-4---3---4-3-4-3-4-3---3-4-3-4-3-1-4-|

G|-----------------------------------------------------------------|
D|-----------------------------------------------------------------|
A|-----------------------------------------------------------------|
E|-3---4-3-4-3-4-3---3-4-3-4-3-4---3---4-3-4-3-4-3---3-4-3-6-3-4---|

0:53
G|-------------------------------------------------------------------|
D|-------------------------------------------------------------------|
A|-6---6-6-6-6---6---6-6-6-6-6--6--5---5-5-5-5-5---5---5-5-5---5--5--|
E|-------------6---------------------------------5-----------5-------|

G|-------------------------------------------------------------------|
D|-------------------------------------------------------------------|
A|-------------------------------------------------------------------|
E|-3---3-4-3-4-3-4-3---3-4-3-4-3-4---3---4-3-4-3-4-3---3-4-3-4-3-1-4-|

Pre Chorus
1:04
G|-----------------------------------------------------------------|
D|-----------------------------------------------------------------|
A|-6---6-6-6-6---6---6-6-6---6--6--8---8-8-8-8-8---8---8-8-8---8---|
E|-------------6-----------6---------------------8-----------8-----|

G|-----------------------------------------------------------------|
D|-----------------------------------------------------------------|
A|-----------------------------------------------------------------|
E|-3---3-4-3-4-3-4-3---3-4-3-4-3-4---5-5-5-5-5-5-5---5-5-5-5-5-5---|

G|-----------------------------------------------------------------|
D|-----------------------------------------------------------------|
A|-6---6-6-6-6---6---6-6-6---6--6--8---8-8-8-8-8---8---8-8-8---8---|
E|-------------6-----------6---------------------8-----------8-----|

Chorus
1:23
G|---------------------------------------------------------------------------|
D|---------------------------------------------------------------------------|
A|------------8--8-8------------5--5-5---6--6-6---8--8-8------------8--8-8---|
E|-3-6--6-6------------3--3-3------------------------------6--6-6------------|

G|-------------------------------------------------------------------------|
D|-------------------------------------------------------------------------|
A|----------8--8-8------------5--5-5---6--6-6---8--8-8------------8--8-8---|
E|-6--6-6------------3--3-3------------------------------6--6-6------------|

Verse
G|-----------------------------------------------------------------|
D|-----------------------------------------------------------------|
A|-----------------------------------------------------------------|
E|-3---4-3-4-3-4-3---3-4-3-4-3-4---3---4-3-4-3-4-3---3-4-3-4-3-1-4-|

G|-----------------------------------------------------------------|
D|-----------------------------------------------------------------|
A|-----------------------------------------------------------------|
E|-3---4-3-4-3-4-3---3-4-3-4-3-4---3---4-3-4-3-4-3---3-4-3-6-3-4---|

G|-----------------------------------------------------------------|
D|-----------------------------------------------------------------|
A|-6---6-6-6-6---6---6-6-6-6-6--6--5---5-5-5-5-5---5---5-5-5---5---|
E|-------------6---------------------------------5-----------5---5-|

G|-----------------------------------------------------------------|
D|-----------------------------------------------------------------|
A|-----------------------------------------------------------------|
E|-3---4-3-4-3-4-3---3-4-3-4-3-4---3---4-3-4-3-4-3---3-4-3-4-3-1-4-|

Pre Chorus
G|-----------------------------------------------------------------|
D|-----------------------------------------------------------------|
A|-6---6-6-6-6---6---6-6-6---6--6--8---8-8-8-8-8---8---8-8-8---8---|
E|-------------6-----------6---------------------8-----------8-----|

G|-------------------------------------------------------------|
D|-------------------------------------------------------------|
A|-------------------------------------------------------------|
E|-6--6-6-6-6-6-6-5--5-5-5-5-5-5-3--3-3-3-3-3-3-1--1-1-1-1-1-1-|

G|-----------------------------------------------------------------|
D|-----------------------------------------------------------------|
A|-6---6-6-6-6---6---6-6-6---6--6--8---8-8-8-8-8---8---8-8-8---8---|
E|-------------6-----------6---------------------8-----------8-----|

Chorus
G|---------------------------------------------------------------------------|
D|---------------------------------------------------------------------------|
A|------------8--8-8------------5--5-5---6--6-6---8--8-8------------8--8-8---|
E|-3-6--6-6------------3--3-3------------------------------6--6-6------------|

G|-------------------------------------------------------------------------|
D|-------------------------------------------------------------------------|
A|----------8--8-8------------5--5-5---6--6-6---8--8-8---------------------|
E|-6--6-6------------3--3-3------------------------------6--6-6---6--6-6---|

Post Chorus
2:54        x4           x4           x4
G|------------|------------|------------|-------------------------------------|
D|o----------o|o----------o|o----------o|-------------------------------------|
A|o-6--6-6---o|o----------o|o----------o|-9--9-9---8--8-8---6--6-6------------|
E|------------|--9--9-9----|--7--7-7----|----------------------------9--9-9---|

3:18                                                         x3
G|-------------------------------------|-----------------------|-------|
D|-------------------------------------|o---------------------o|-------|
A|-------------------------------------|o---------------------o|-------|
E|-7--7-7---7--7-7---9--9-9---9--9-9---|--2--2-2---2-2--2-2----|-2-----|

Pre Solo
3:36
G|----------------------------------------------------------------------------------|
D|----------------------------------------------------------------------------------|
A|----------------------------------------------------------------------------------|
E|-2---2--2--2--2-2-2-2-2-2-2-2---2--2--2--2-3-2-4-2-0-2-2---2--2--2--2-3-2-4-2-0-2-|

Solo
3:48
G|-------------------------------------------------------------------------------|
D|-------------------------------------------------------------------------------|
A|--------------8-9-8-10-8-6-8---------------------------------------------------|
E|-2---2--2--2-----------------222222222-2-2--223-2-2-2--223-2-2-2--223-2-4-2-3--|

3:55                                                     x6                         x4
G|----------------------------------------------|----------|--------------|-----------|
D|----------------------------------------------|o--------o|--------------|o---------o|
A|----------------------------------------------|o--------o|--------------|o---------o|
E|-22222-2-2--223-2-2-2--223-2-2-2--2-3-2-4-2-3-|--2-2-----|--2-3-2-4-2-3-|--2-2------|

4:12
G|-------------------------------|
D|-------------------------------|
A|-------------------------------|
E|-2-3-2-4-2-3-2-3-5-2-5-2-7h8p7-|

Interlude
G|-------------------------------------------------------------|
D|-------------------------------------------------------------|
A|---------------------------------------------------6----6----|
E|-3----3----3----7----7----7----3----3----4----4--------------|

G|-------------------------------------------------------------------|
D|-------------------------------------------------------------------|
A|-----6---8-------4---6-------6-------6---8-------4---6-------8---\-|
E|-4-----------8-----------4-------4-----------8-----------4---------|

Chorus
5:02
G|-------------------------------------------------------------------------|
D|-------------------------------------------------------------------------|
A|----------8--8-8------------5--5-5---6--6-6---8--8-8------------8--8-8---|
E|-6--6-6------------3--3-3------------------------------6--6-6------------|

G|-------------------------------------------------------------------------|
D|-------------------------------------------------------------------------|
A|----------8--8-8------------5--5-5---6--6-6---8--8-8---6--6-6---6--6-6---|
E|-6--6-6------------3--3-3------------------------------------------------|

G|-------------------------------------------------------------------------|
D|-------------------------------------------------------------------------|
A|-8--8-8---8--8-8---------------------------------------6--6-6---6--6-6---|
E|-------------------3--3-3---5--5-5---6--6-6---5--5-5---------------------|

G|--------------------------------------------|
D|--------------------------------------------|
A|-8--8-8---8--8-8---8--8-8---8-8--8-8--8-----|
E|--------------------------------------------|

Outro
G|-----------------------------------------------------------------|
D|-----------------------------------------------------------------|
A|-----------------------------------------------------------------|
E|-3---4-3-4-3-4-3---3-4-3-4-3-4---3---4-3-4-3-4-3---3-4-3-4-3-1-4-|

G|-----------------------------------------------------------------|-------------------|
D|-----------------------------------------------------------------|o-----------------o|
A|-----------------------------------------------------------------|o-----------------o|
E|-3---4-3-4-3-4-3---3-4-3-4-3-4---3---4-3-4-3-4-3---3-4-3-6-3-4---|--3-3-----3-3------|

6:04
G|----------------------------------------------------------------|
D|----------------------------------------------------------------|
A|----------------------------------------------------------------|
E|-3-4-3-6-3-4-3-3-4-6-4-6-7-8-6-8-9-10-9-10-11-12-10-12h13p12-12-|
Tabbed by Dave Vucko
comments
We did not receive enough feedback on this tab! Please rate:
print report bad tab
1 2 3 4 5
I want to post or [tab]
guest
You may want to rate the tab now too:
select rating
Please do not post tabs as comments. Select "correction" instead!