Oops, an error
Loading. Please wait.

On Guitar Tab

9,306 views 9 this week
no commentswrite comment
1 2 3 4 5
excellent!
x 4
Autoscroll
+/-
esc
set tempo
stop
Contributor
Hey! There's an official Ultimate Guitar app which is ideal
for learning songs when you're away from computer. Get the app
WARNING: You are trying to view
                                    content from Ultimate-Guitar.com
                                    in an unauthorized application,
                                    which is prohibited.

                                    Please use an official Ultimate
                                    Guitar Tabs application for iPhone,
                                    iPad or Android to access legitimate
                                    chords, guitar, bass, and drum tabs
                                    from Ultimate-Guitar.com database.

                                    Type "ultimate guitar tabs" in Apple
                                    App Store's or Android Market's
                                    search to find the application.
here is almost whole "On Guitar"-album tabbed; only missing song is 10 - Forever Love.
There is more than only one guitar playing at the same time in that song and a lot of
noice, so harder to tab than the others. Maybe I tab it some day... but enjoy the others!

Feel free to mail, send corrections or feedback or whatever to abigcupofcoffee@hotmail.com

01 - The Last Song
02 - Longing
03 - Endless Rain
04 - Unfinished
05 - Crucify My Love
06 - Alive
07 - Say Anything
08 - Tears
09 - Amethyst





Tablature Legend

h - hammer on
p - pull of
/ - slide up
\ - slide down
* - harmonic
:-) - HAVE FUN!!!










01 - The Last Song



  Verse (play three times)
E||--3-----3-----3-----3-----|--3-----3-----3-----3-5---|
B||--5-----5-----5-----5-----|--5-----5-----5-----5-----|
G||-----5-----5-----5-----5--|-----5-----5-----5--------|
D||--------------------------|--------------------------|
A||--3-----------------------|--------------------------|
E||--------------------------|--------------------------|

|--------------------------|--5-----5-----------------||
|--3-----3-----3-----3-----|--3-----3-----3-----3-----||
|--4-----4-----4-----4-----|--------------4-----4-----||
|-----5-----5-----5-----5--|-----5-----5-----5-----5--||
|--------------------------|--------------------------||
|--3-----------------------|--------------------------||



 Pre-chorus 
||--3-----3-----3-----3-----|--3-----3-----3-----3-5---|
||--5-----5-----5-----5-----|--5-----5-----5-----5-----|
||-----5-----5-----5-----5--|-----5-----5-----5--------|
||--------------------------|--------------------------|
||--3-----------------------|--3-----------------------|
||--------------------------|--------------------------|
 
|--3-----3-----3-----3-----|--2-----2-----2--3--2--3--||
|--3-----3-----3-----3-----|--3-----3-----3-----------||
|-----2-----2-----2-----2--|-----2-----2--------------||
|--0-----------------------|--0-----------------------||
|--------------------------|--------------------------||
|--------------------------|--------------------------||



 Chorus
||--2--0-0---------3--2--3--|--3---5------5----8-----|
||--------------------------|----------3--7----10----|
||--------------0-----------|------------------------|
||-----------2--------------|--0---------------------|
||--3-----------------------|------------------------|
||--------------------------|------------------------|
 
|--8---7-7----------5--7--|--5---3--------3--2--3--|
|--10--8-8----------------|------5-----------------|
|--0----------------------|------------------------|
|-------------------------|------------------0-----|
|--------------9----------|------------------------|
|-------------------------|--0---------0-----------|
 
|--2--0-0---------3--2--3--|--3-----------5-----------||
|--------------------------|--3-----3-----7-----7-----||
|--------------0-----------|-----2-----2-----7-----7--||
|-----------2--------------|--0-----------------------||
|--3-----------------------|--------------------------||
|--------------------------|--------------------------||
 

Repeat Verse (play only one time)

Repeat Pre-chorus

Repeat Chorus playing this end  --3--------5-5-----------||
(=instead of the last bar)      --3-----3--7-7-----3--3--||
                                -----2-------------------||
                                --0----------------------||
                                -------------------------||
                                -------------------------||


 Bridge
||------------------------|----------------0-----0--|
||--3---------------------|---------1--1------------|
||--3---------------------|--0--0-------------3-----|
||-------3-------3--2--3--|--2----------------------|
||--1---------1-----------|--3----------------------|
||------------------------|-------------------------|

|--------1------------0------|--------------1-----------|
|-----1------------1---------|--------------3--------3--|
|--2--------2h3-2--------2h3-|--2p0------2--------------|
|----------------------------|--0---3----------3--3-----|
|----------------------------|--------------------3-----|
|--1------------0------------|--------------------------|

|-------------------------|--------0-----0-----3----|
|--3----------3-----------|-----1-----1-----1-------|
|----------3--------------|--0----------------------|
|------3---------3--2--3--|-------------------------|
|--1----------------------|--3----------------------|
|-------------------------|-------------------------|
 
|--1p0---------------0-----|--0-----0-----1-----0-----|
|------3-------------3-----|--3-----3-----3-----1-----|
|-----------2-----2-----2--|-----2-----2-----0-----0--|
|--0-----------0-----------|--------------0-----------|
|--------------------------|--------------------3-----|
|--------------------------|--------------------------|
 
|--0-----------------------|--0-----0-----3-----3-----|
|--------3-----3-----3-----|--1-----1-----1-----1-----|
|--------3-----3-----3-----|-----0-----0-----0-----0--|
|-----3-----3-----3-----3--|--------------------------|
|--1-----------------------|--3-----------------------|
|--------------------------|--------------------------|
 
|--1--------1--0--------0--|--1-----1-----1-----0-----|
|--1-----1-----1-----1-----|--3-----1-----1-----1-----|
|-----2-----------0--------|-----2-----2-----2-----0--|
|--------------------------|--0-----------------------|
|--------------------------|--------------------------|
|--1-----------0-----------|--------------------------|
 
|--0-----------------------|--3-----3-----3--3--2--3--||
|--1-----3-----3--------3--|--0-----1-----1-----------||
|-----0--3-----3-----3-----|-----0-----0--------------||
|-----------3-----3--------|--------------------------||
|--3-----1-----------------|--2-----------------------||
|--------------------------|--------------------------||



Repeat Chorus playing this end  --3---5-----------10-----||
                                --5---7--------7--10-----||
                                ----------------------7--||
                                ------------0------------||
                                -------------------------||
                                -------------------------||



 End
||--2---3-----------------|--0-----0-----0--3--2--3--|
||--0------------------0--|--0-----0-----0-----------|
||--0---------------0-----|-----0-----0--------------|
||---------------2--------|--------------------0-----|
||------------------------|--------------------------|
||--0---------0-----------|--0-----------------------|
 
|--2--0-0---------3--2--3--|--3---5------5----8----|
|--1-----------------------|----------3--3---------|
|--0-----------0-----------|-----------------------|
|-----------2--------------|--0--------------------|
|--3-----------------------|-----------------------|
|--------------------------|-----------------------|
 
|--8---7-7--------5--5--7--|--5---3--------3--2--3--|
|--10--8-8-----------------|------5-----------------|
|--0-----------------------|------------------------|
|--------------------------|------------------0-----|
|--------------9-----------|------------------------|
|--------------------------|--0---------0-----------|
 
|--2--0-0---------3--2--3--|--3-----------5--------|
|--0-----------------------|--3-----3-----7--------|
|--0-----------0-----------|-----2-----2-----------|
|-----------2--------------|--0--------------------|
|--3-----------------------|-----------------------|
|--------------------------|-----------------------|
 
|--------------3----|--2----0------------||
|-------------------|--0-----------------||
|-------------------|--0-----------------||
|-------------------|--------------------||
|-------------------|--3-----------------||
|-------------------|--------------------||


















02 - Longing




E||----------------------|----------------------|
B||----------------------|----------------------|
G||--5--------3-------3--|-------------------3--|
D||--3-------------7-----|----------------3-----|
A||--5-------------------|--1----------5--------|
E||--6-------------------|----------------------|
 
|----------------------|------------------------|
|--1-------------------|---------------------1--|
|--0--------3----2--3--|------------3--2--3-----|
|--1-------------------|--1------3--------------|
|----------------------|------------------------|
|----------------------|------------------------|
 
|----------------------|-----------------------|
|--3-------------------|--------------------3--|
|--3--------3----2--3--|-----------------5-----|
|--3-------------------|--------------3--------|
|--1-------------------|-----------------------|
|----------------------|--6--------6-----------|
 
|--------------3-----------|----------------------|
|--3-----------------------|-----------------4----|
|--------3-----------3-----|--0----2----3----3----|
|-----5-----5-----5-----5--|--1----0----3----3----|
|--6-----------------------|------------3---------|
|--------------------------|----------------------|
 
|---------------------|----------------------||
|--3------------------|--3----------------3--||
|--5--------3---------|--3-------------3-----||
|--3-------------7----|--3----------3--------||
|---------------------|--1-------------------||
|--6------------------|----------------------||
 



||--------------------------|--1-------------------|
||-----3--3-3--4---3--1-----|----------1-1---------|
||-----------------------3--|----------------------|
||--------------------------|-----3----------------|
||--1-----------------------|--0-------------------|
||--------------------------|----------------------|
 
|----------------------------|-------------------------|
|-----3--3-3--4----3-----3-3-|-------------------6--4--|
|-----3---------------5------|--------3-----5----------|
|---------------3------------|-----5-----5--3----------|
|----------------------------|--6----------------------|
|--3-------------------------|-------------------------|
 
|--------------------------|------------------------|
|-----3--3-3--4---3--------|--6-------------------3-|
|--3-----------------5--3--|----------5-5-------5---|
|--------------------------|-----3------------------|
|--------------------------|------------------------|
|--------------------------|--5---------------------|
 
|---------------------------|--------4-----------4-----|
|--4--------4--6--4--3--4-4-|--------------4-----------|
|--5-----------3------------|-----5-----5-----5-----5--|
|--------6------------------|--3-----------------------|
|-----6---------------------|--------------------------|
|--4-----------3------------|--------------------------|
 
|---------------------------|---------------------------|
|-----4--4-4--6----4--3--4--|-----4--4-4--4h6--4--3-4---|
|-----5------------3--------|-----5---------------------|
|---------------------------|--3------------------------|
|---------------------------|---------------------------|
|--4------------3-----------|---------------------------|
 
|---------------------------|-----------------3----4--3-||
|-----4--4-4---6--4--3--4-6-|-----------------3--6------||
|-----5---------------------|--------5--------3---------||
|---------------------------|-----6-----6---------------||
|---------------------------|---------------------------||
|--4-----------3------------|--4-----------6------------||
 


 Chorus
||--------------------------|-----------3--3----1h4--3-|
||--------4-----4-----3-----|--4-----------------------|
||--------3-----3-----3-----|--3-----3-----------------|
||-----5-----5-----5-----5--|-----5-------------0------|
||--6-----------------------|--6-----------6-----------|
||--------------------------|--------------------------|

|--------------------------|-----------6--6----4-6--4-|
|--------4-----4-----3-----|--4-----------------------|
|--------5-----5-----3-----|--5-----5-----------------|
|-----5-----5-----5-----5--|-----5--------------------|
|--3-----------------------|--3-----------------------|
|--------------------------|--------------------------|
 
|--------------4-----3-----|--4--------6--6----4-6----|
|--------4-----4-----4-----|--4-----4---------------6-|
|-----5-----5-----5-----5--|-----5--------------------|
|--3-----------------------|--3-----------------------|
|--------------------------|--------------------------|
|--------------------------|--------------------------|
 
|--------------------------|---------4--4----3-4--3-||
|--------------3-----4-----|--3------6--6----4-6--4-||
|-----------3--3-----5-----|--3---------------------||
|--------3--------3-----3--|------------------------||
|-----5--------------------|------------------------||
|--6-----------------------|--6---------------------||



 Chorus
||--------------------------|-----------3--3----1h4--3-|
||--------------4-----3-----|--4--------4--4---------4-|
||--------3-----3-----3-----|--3-----3----------3------|
||-----5-----5-----5-----5--|-----5-------------0------|
||--6-----------------------|--6-----------6-----------|
||--------------------------|--------------------------|
 
|--------------------------|-----------6--6----4-6--4-|
|--------------4-----3-----|--4--------8--8----6-8--6-|
|--------5-----5-----3-----|--5-----5-----------------|
|-----5-----5-----5-----5--|-----5--------------------|
|--3-----------------------|--3-----------------------|
|--------------------------|--------------------------|
 
|--------------4-----3-----|--4---------8-------8--6-|
|--------6-----6-----4-----|--6---------9----11----6-|
|-----5-----5-----5-----5--|---------5-------------7-|
|--3-----------------------|--3----------------------|
|--------------------------|-------------------------|
|--------------------------|-------------------------|
 
|----------------------|-----------------------||
|----------------4-----|--3------------3-------||
|----------------5-----|--3------3--5----------||
|-------------3-----3--|-----------------------||
|----------------------|---------------------6-||
|----------6-----------|--6--------------------||
 


 Verse
||--------------------------|-----------------3--------|
||--6-----------4-----3--4--|-----------4--6-----------|
||--------3-----------------|--------3--------------3--|
||-----5-----5-----5--------|-----5--------------5-----|
||--------------------------|--6-----------------------|
||--------------------------|--------------------------|
 
|--6-----------4-----3--4--|--------------------------|
|--------4-----------------|--------------4--------4--|
|-----5-----5-----5--------|--------5-----------5-----|
|--------------------------|-----6-----6-----6--------|
|--------------------------|--------------------------|
|--4-----------------------|--4-----------------------|
 
|--4-----------------------|--------4----------------|
|--------4-----6-----4--6--|--------------6---4---6--|
|-----5-----5-----5--------|-----5-----5-------------|
|--3-----------------------|--3----------------------|
|--------------------------|-------------------------|
|--------------------------|-------------------------|
 
|--------------------------|----------------------||
|--4--------------------4--|--3------------3------||
|--------3-----------3-----|--3------3--5---------||
|-----3-----3-----3--------|----------------------||
|--------------------------|--1-------------------||
|--6-----------6-----------|----------------------||
 


 Verse
||--------------------------|----------------------3--|
||--6-----------4-----3--4--|-------------6--4--6-----|
||--3-----3-----------------|----------3--------------|
||--5--5-----5-----5--------|-----5-------------------|
||--6-----------------------|--6----------------------|
||--------------------------|-------------------------|
 
|--6-----------4-----3--4--|------------------------|
|--------4-----------------|--------4--------4------|
|-----5-----5-----5--------|--------5-----3---------|
|--------------------------|-----------6------------|
|--------------------------|-----6------------------|
|--4-----------------------|--4---------------------|
 
|--------------------------|--------1---------------|
|--3-----------3-----------|-----------------3------|
|--3-----3-----3-----3-----|-----3-----3--5---------|
|-----3-----3-----3-----3--|------------------------|
|--1-----------------------|--1---------------------|
|--------------------------|------------------------|
 
|--------------------------|-----------3------------------||
|--6-----------4-----3--4--|--------------------4-------3-||
|--------3-----------------|--------3---------3-------3---||
|-----5-----5-----5--------|-----5----------5-------3-----||
|--6-----------------------|--6-----------6-------5-------||
|--------------------------|------------------------------||

 

 Bridge
||-----------------------------|--------------------------|
||------4--4--4-6----4--3--4-4-|----------------------3---|
||------5--5--5-3------------5-|----------------------3---|
||----5------------------------|--------6-----------6-----|
||--3--------------------------|-----6-----6-----6--------|
||----------------6------------|--4-----------4-------6---|
 
|-----------------------------|--------------------------|
|------4--4--4-6----4--3--4-4-|----------------------3---|
|------5--5--5-3------------5-|----------------------3---|
|----5------------------------|--------6-----------6-----|
|--3--------------------------|-----6-----6-----6--------|
|----------------6------------|--4-----------4-------6---|
 
|----------------------------|---------------------------|
|------4--4--4-6----4--3--4--|-----4--4--4-4h6--4--3-4---|
|------5--5----3-------------|-----5---------------------|
|----5-----------------------|---------------------------|
|--3-------------------------|---------------------------|
|----------------6-----------|--4------------------------|
 
|--------------------------3-|-----------------3--1-4--3-||
|-----4--4--4-6----4--6--6-4-|-----------4-----3-------4-||
|-----5--5--5----------------|--------5--------3---------||
|----------------------------|-----5---------------------||
|--3-------------------------|---------------------------||
|---------------6------------|--4-----------6------------||
 


 Chorus
||--------------------------|-----------3--3----1h4--3-|
||--------------4-----3-----|--4--------4--4---------4-|
||--------3-----3-----3-----|--3-----3----------3------|
||-----5-----5-----5-----5--|-----5-------------0------|
||--6-----------------------|--6-----------6-----------|
||--------------------------|--------------------------|
 
|--------------------------|-----------6--6----4-6--4-|
|--------------4-----3-----|--4--------8--8----6-8--6-|
|--------5-----5-----3-----|--5-----5-----------------|
|-----5-----5-----5-----5--|-----5--------------------|
|--3-----------------------|--3-----------------------|
|--------------------------|--------------------------|
 
|--------------4-----3-----|--4---------8----6-8--6-|
|--------6-----6-----4-----|--6---------9---------6-|
|-----5-----5-----5-----5--|---------5------------7-|
|--3-----------------------|--3---------------------|
|--------------------------|------------------------|
|--------------------------|------------------------|
 
|----------------------|---------4--4----3-4--3-||
|----------------4-----|--3------6--6----4-6--4-||
|----------------3-----|--3---------------------||
|-------------3-----3--|------------------------||
|----------------------|------------------------||
|----------6-----------|--6---------------------||
 


 Chorus
||--------------------------|-----------3--3----1h4--3-|
||--------------4-----3-----|--4--------4--4---------4-|
||--------3-----3-----3-----|--3-----3----------3------|
||-----5-----5-----5-----5--|-----5-------------0------|
||--6-----------------------|--6-----------6-----------|
||--------------------------|--------------------------|
 
|--------------------------|-----------6--6----4-6--4-|
|--------------4-----3-----|--4--------8--8----6-8--6-|
|--------5-----5-----3-----|--5-----5-----------------|
|-----5-----5-----5-----5--|-----5--------------------|
|--3-----------------------|--3-----------------------|
|--------------------------|--------------------------|
 
|--------------4-----3-----|--4---------8----6-8--6-||
|--------6-----6-----4-----|--6---------9-----------||
|-----5-----5-----5-----5--|---------5------------7-||
|--3-----------------------|------------------------||
|--------------------------|--3---------------------||
|--------------------------|------------------------||
 


 End
||-----------------------|----------------------|
||-----------------3--4--|-------------------4--|
||--------------3-----5--|----------------5-----|
||-----------3-----------|-------------3--------|
||-----------------------|----------------------|
||--------6--------------|----------6-----------|
 
|-----------------------|-----------------------|
|--3-----------------3--|--4-----------------4--|
|--3--------------3-----|--5--------------5-----|
|--------------3--------|--------------3--------|
|-----------------------|-----------------------|
|--6--------6-----------|--6--------6-----------|
 
|-------------------|------------------||
|--3----------------|------------------||
|--3----------------|------------------||
|-------------------|------------------||
|-------------------|------------------||
|--6----------------|------------------||















03 - Endless Rain



 Intro
E||--0-----0-----------------|--------------------------|
B||--1-----1-----3-----3-----|--1-----1-----3-----3-----|
G||*----0-----0--4-----4-----|--2-----2-----4-----4----*|
D||*----------------5-----5--|-----3-----3-----5-----5-*|
A||--3-----------3-----------|--3-----------3-----------|
E||--------------------------|--------------------------|
 
|--------------------1-----|---------------------0-1--|
|--1-----1-----1-----1-----|--1-----1-----3----3------|
|--2-----2-----2-----------|--2-----2-----0-----------|
|-----3-----3-----3-----3--|-----3-----3--------------|
|--------------------------|--------------------------|
|--1-----------------------|--3-----------3-----------|
 
|--1-----1-----0-----0-----|--1-----1-----0---------||
|--1-----1-----1-----1-----|--1-----1-----1---------||
|-----0-----0-----0-----0--|-----0-----0--0------0--||
|--------------------------|------------------------||
|--3-----------3-----------|--3---------------------||
|--------------------------|--------------3---------||



 Verse 
||--0--0--0--0-0-----------|-------------------1----|
||--1----------------------|--3--3--3--3-3-----3----|
||--0----------------0--0--|--4----------------1----|
||-------------------------|--5---------------------|
||--3----------------------|--3----------------2----|
||-------------------------|------------------------|
 
|--0-----------------------|--------------------------|
|--1--1--1--1-1---0-----0--|--1-----3-----1-----0-----|
|--2-----------------2-----|--2-----2-----0-----0-----|
|--------------------------|-----3-----3-----0-----0--|
|--0-----------------------|--------------------------|
|--------------------------|--1-----------3-----------|
 
|--0--0--0--0-0-----------|-------------------1----|
|--1----------------------|--3--3--3--3-3-----3----|
|--0----------------0--0--|--4----------------1----|
|-------------------------|--5---------------------|
|--3----------------------|--3----------------2----|
|-------------------------|------------------------|
 
|--0----------5--5--5--5-3-|--------------0---------||
|--1---------------------0-|-----------3--0----3----||
|-------2--2--5------------|--------0-----0---------||
|-------------3------------|-----0------------------||
|--0-----------------------|------------------------||
|--------------------------|--3-----------3---------||
 


 Bridge
||-----------0-------------|--------------0---------|
||--1-----------3-------0--|--1--------3-------3----|
||--2-----------4----5-----|--------0-----1---------|
||--------3----------------|-----2------------------|
||-----3-------------------|--3---------------------|
||--1-----------3----------|--------------0---------|
 
|-----------0--------------|--------1-----0-----0-----||
|--1-----------3-------0-1-|--------1-----1-----1-----||
|--2-----------4----5------|-----0-----0-----0-----0--||
|--------3-----------------|--------------------------||
|-----3--------------------|--3-----------------------||
|--1-----------3-----------|--------------------------||
 


 Chorus
||--0-----------------7-----|--8-----------------10--8--7--|
||--------1-----------------|--------5---------------------|
||-----0-----0-----0-----0--|-----5-----5-----0------------|
||--------------------------|------------------------------|
||--3-----------2-----------|--0---------------------------|
||--------------------------|--------------3---------------|
 
|--8--------------------10--8--7--|--8--------10--8----7-----|
|---------------------------------|--------6------8----8-----|
|---------10---------0------------|-----7---------0----0-----|
|-----10------10------------------|--0--------------------0--|
|--8--------------7---------------|--------------------------|
|---------------------------------|--------------------------|
 
|--0-----0-----------7-----|--8--------------------10--8--7--|
|--1-----1-----------8-----|--10-----------------------------|
|--0--0-----0-----0-----0--|----------9---------0------------|
|--------------------------|------10-----10------------------|
|--3-----------2-----------|--0------------------------------|
|--------------------------|-----------------3---------------|
 
|--8--------------------10--8--7--|--8-----------7----------||
|---------------------------------|--------6-----8----8-----||
|---------10---------0------------|-----7-----7--0----------||
|-----10------10------------------|--0------------------(0)-||
|--8------------------------------|-------------------------||
|-----------------0---------------|-------------------------||
( )Play this note only in third Chorus (the first Chorus after Solo part)


 Solo Part 
||----------0-------0---------------|----------3---------------1-----1-|
||--------1---1-------1-----------1-|--------3---3-----------3-----3---|
||------0-------0-------0-------0---|------4-------4-------4-----1-----|
||----2-----------2-------2---2-----|----5-----------5---5-------------|
||--3-----------------------3-------|--3---------------3-------2-------|
||----------------------------------|----------------------------------|
 
|----------0-----------------------|----------1---------------3-------|
|--------1---1-----1p0---0-1p0-----|--------1---1-----------3---3-----|
|------2-------2-------2-------2-0-|------2-------2-------4-------4---|
|----2-----------2-----------------|----3-----------3---5-----------5-|
|--0-------------------------------|----------------------------------|
|----------------------------------|--1---------------3---------------|
 
|----------0-------0---------------|----------3-------3---------------|
|--------1---1-------1-----------1-|--------3---3-------3-----------3-|
|------0-------0-------0-------0---|------4-------4-------4-------4---|
|----2-----------2-------2---2-----|----5-----------5-------5---5-----|
|--3-----------------------3-------|--3-----------------------3-------|
|----------------------------------|----------------------------------|
 
|----------0-------1-------1-------|--3-------3-------0---------||
|--------1---1-------1-------1-----|----3-------3-----0----3----||
|------2-------2-------2-------2---|------5-------5---0---------||
|----2-------------------3-------3-|--------5-------5-----------||
|--0-------------------------------|----------------------------||
|----------------3-1---------------|--3---------------3---------||
 


Play Bridge

Play Chorus two times



 End
||--0-----0-----------------|--------------------------|
||--1-----1-----3-----3-----|--1-----1-----3-----3-----|
||-----0-----0--4-----4-----|--2-----2-----4-----4-----|
||-----------------5-----5--|-----3-----3-----5-----5--|
||--3-----------3-----------|--3-----------3-----------|
||--------------------------|--------------------------|
 
|--1-----1-----1-----1--0---|--0^---------------||
|--1-----1-----1----------3-|--1l---------------||
|-----0-----0-----0---------|--0l---------------||
|---------------------------|--2l---------------||
|--3------------------------|--3l---------------||
|---------------------------|-------------------||
























04 - Unfinished

                                                
E||--------------0--2--3--|------------------2--|
B||-----------------------|--1------------1-----|
G||-2/4-------4-----------|---------------------|
D||-----------------------|---------------------|
A||-----------------------|---------------------|
E||-----------------------|---------------------|
 
|--3--5--2------------|--5--3--2-2h3---------|--2--------------3--|
|---------------------|----------------------|-----------------0--|
|---------------------|----------------------|--------------------|
|---------------------|----------------------|--------------------|
|---------------------|----------------------|-----------------3--|
|---------------------|----------------------|--------------------|
 
|---------0-------2----------2-|--0-----0---2---3---5---3---2---|
|-------0-------0-3--------3---|--0---0---0---0---0---0---0---0-|
|-----0-------0---2------2-----|--0-----------------------------|
|---2-------2-----0----0-------|--------------------------------|
|------------------------------|--------------------------------|
|------------------------------|--0-----------------------------|
 
|--0----------0-2----------2-|--0------------0-----0-12*------12*-||
|--0--------0---3--------3---|--0----------0-----0---------12*----||
|--0------0-----2------2-----|--0---0----0-----0--------12*-------||
|-------2-------0----0-------|---------4--------------------------||
|--3-------------------------|------------------------------------||
|----------------------------|--0---------------------------------||




||-----------3-3-2--------0-2-|--3-----7-----5-----3-----|
||--------0------------3------|--------8-----7-----5-----|
||-----0------------2---------|-----0-----0-----0-----0--|
||---------------0------------|--------------------------|
||--3-------------------------|--------------------------|
||----------------------------|--0-----------------------|
 
|-----------3--2--------0-2-|--3p2-3---------7---5---3--|
|--------0-----------3------|--0-----------0-8---7---5--|
|-----0-----------2---------|--0---------0--------------|
|--------------0------------|----------2----------------|
|--3------------------------|---------------------------|
|---------------------------|--0------------------------|
 
|--0--------3--2--------0-2-|--3-----7-----5-----2-----|
|--1-----------3-----3------|--5-----8-----7-----0-----|
|--------0--------2---------|-----0-----0-----0-----0--|
|-----2--------0------------|--------------------------|
|--3------------------------|--------------------------|
|---------------------------|--0-----------------------|
 
|-----------3--2--------0-2-|--3-----------------------|
|--------0-----------3------|--0-----0-----0-----0-----|
|-----0-----------2---------|--------0-----0-----0-----|
|--------------0------------|-----2-----2-----2-----2--|
|--3------------------------|--------------------------|
|---------------------------|--0-----------------------|
 
|----------3--3-2--------0-2-|--3-----------7---5---3--|
|---------------3-----3------|--------0-----8---7---5--|
|--------0---------2---------|--------0----------------|
|-----2---------0------------|-----2-----2-------------|
|--3-------------------------|-------------------------|
|----------------------------|--0----------------------|
 
|--0--------2h3-2--------0-2-|--3--------0-----------2--||
|--1------------3-----3------|--0-----0-----------3-----||
|--------0---------2---------|-----0-----------2--------||
|-----2---------0------------|--------------0-----------||
|--3-------------------------|--------------------------||
|----------------------------|--0-----------------------||



 
||-----------7-5-7-------7--5--3--|--2-----------------0--2-3-|
||--------0------8----------------|--------0-----0------------|
||--------0-----------------------|--------2-----2------------|
||-----0--------------9-----------|-----1-----1-----1---------|
||--------------------------------|--2------------------------|
||--3-----------------------------|---------------------------|

|--------------------0--3--|--7----5----3--3--2--2-3-|
|-----------1-----1--------|--8----7---------------0-|
|--------0--------0--------|-------------------------|
|-----2--------------------|--0----------------------|
|--3-----------3--------3--|-------------------------|
|--------------------------|-------------------------|

|-----------------------3--|--2-----------------0--2-3-||
|--------------------3-----|--------5-----4------------||
|--------0-----0--4--------|--------4-----2------------||
|-----0-----0--------------|-----4-----4-----4---------||
|--------------------------|--2------------------------||
|--3-----------------------|---------------------------||
 



||--------------------7---------|--5-----------7------7-7-|
||-----------1--------8--10--8--|--7-----7-----7----------|
||*-------0--------0--6---------|-----7-----7--8----------|
||*----2------------------------|--0----------------------|
||--3-----------4---------------|-------------------------|
||------------------------------|--------------7----------|
 
|--7---------------------|--3----------------------|
|--8-------8--7--------7-|--5-----------3---1---0--|
|--9-------9--7------9---|--------4-----4---2---0--|
|--10---------0----------|-----5-----5-------------|
|------------------------|-------------------------|
|------------------------|--0----------------------|
 
|-----------3-3-2--------0-2-|--3p2-3-------7---5---3--|
|-----------0---3-----3------|--0-----------8---7---5--|
|--------0---------2---------|--0--------0-------------|
|-----2---------0------------|-------------------------|
|--3-------------------------|-------------------------|
|----------------------------|--0----------------------|
 
|--0--------3--2--------0-2-|--3----2----0--------|--2----2----3----5----|
|--1--------5--3-----3------|--5----3----1--------|--3-------------------|
|--------0--------2---------|-------2----0--------|--2----2----4----5----|
|-----2--------0------------|--2----0----2--------|--0-------------------|
|--3------------------------|------------3--------|----------------------|
|---------------------------|--0------------------|----------------------|
 

 Goal 1
|--3--------7--7---5---7--|--5---3-----------------0-2-3-|
|--0--------8--8---7---8--|--7---5-----0-----------------|
|--0-----0-----0----------|----------0-----------4-------|
|-----0-------------------|------------------2/4---------|
|-------------------------|----------------2-------------|
|--3----------------------|--0-----------0---------------|
 
|--2---0--------------0--7--|--5----------------------|
|--0-------3--------1----8--|--7-----7----------------|
|--0--------------0---------|-----7-----7-------------|
|--2------------2-----------|--0-----------4---5---7--|
|--3----------0-------------|--------------5---7---9--|
|---------------------------|-------------------------|
 
|----------------------2--|--0-----------0-2-3---5---3---2---|
|--0--------0--4---5------|--0---------0-------0---0---0---0-|
|--0-----0-----4----------|----------0-----------------------|
|-----0-------------------|------2/4-------------------------|
|--------------2----------|----2-----------------------------|
|--3----------------------|--0-------------------------------|
 
|--0-------0-----0---------0-----0-|----------2--7--7----8----||
|--1-----1-----1---------2-----2---|------3-------------------||
|------0-----0---------0-----0-----|----2---2-------8---------||
|----2---------------2-------------|--0-------------7---------||
|--3---------------4---------------|--------------------------||
|----------------------------------|----------------7---------||
 



||--7------------7---5---3--|--2--------------------2-3-|
||--------------------------|--------0-----------0------|
||--------------------------|-----2-----2-----2---------|
||------------9-------------|--1------------------------|
||-----7--10----------------|--------------2------------|
||--0-----------------------|---------------------------|
 
|--5-----------5---3---2--|--3-----3-----2--------7-7-|
|--7-----7----------------|--------1------------------|
|-----7-------------------|-----0-----0--------2------|
|-----------7-------------|-----------------1---------|
|--5----------------------|--3-----------2------------|
|-------------------------|---------------------------|
 
|--7-----------7---5---3--|--2-----------------0--2-3-|
|--8-----8--0--8---7---5--|--3-----3------------------|
|-----0-----0-------------|-----2-----2-----2---------|
|-------------------------|--0-----------0------------|
|-------------------------|---------------------------|
|--0----------------------|---------------------------|
 
|--------0--2-3----3--3-2-3--|--5--------------2------|
|---------------------5-3-5--|--7--------------3------|
|-----0----------------------|--------------2-----2p0-|
|----------------------------|--0--------0------------|
|--3------------0------------|------------------------|
|----------------------------|------------------------|
 
|--2--------------------|------2---7----5---3---2-0----|
|--0--------------------|----0--------0---0---0------4-|
|--2--------------------|--2---------------------------|
|--1------------------1-|------------------------------|
|--2---------------2----|------------------------------|
|-----------------------|------------------------------|
 
|------------7-----------|----------7--5--3--2--||
|----------7-------------|----------------------||
|--------8---------------|----------------------||
|------7-----------------|----------------------||
|----9-------------------|----------------------||
|--7---------------------|----------------------||
 



||--3--------3-3-2--------0-2-|--3----------------------12*-|
||--------0------------3------|--------0------------12*-----|
||--------0---------2---------|-----0-----0-----12*---------|
||-----2---------0------------|-----------------------------|
||--3-------------------------|-----------------------------|
||----------------------------|--0-----------0--------------|
 
|-----------3--2--------0-2-|--3p2-3---------7---5---3--|
|--------0-----------3------|--0-----------0-8---7---5--|
|-----0-----------2---------|--0---------0--------------|
|--------------0------------|----------2----------------|
|--3------------------------|---------------------------|
|---------------------------|--0------------------------|
 
|--0--------3--2--------0-2-|--3-----------------------||
|--1-----------3-----3------|--0-----0-----0-----0-----||
|--------0--------2---------|--------0-----0-----0-----||
|-----2--------0------------|-----2-----2-----2--------||
|--3------------------------|--------------------------||
|---------------------------|--0--------------------2--||



 
||-----------7-5-7-------7--5--3--|--2-----------------0--2-3-|
||--------0------8----------------|--------0-----0------------|
||--------0-----------------------|--------2-----2------------|
||-----0--------------9-----------|-----1-----1-----1---------|
||--------------------------------|--2------------------------|
||--3-----------------------------|---------------------------|
 
|--------------------0--3--|--7----5----3--3--2--2-3-|
|-----------1-----1--1-----|--8----7---------------0-|
|--------0--------0--------|-------------------------|
|-----2--------------------|--0----------------------|
|--3-----------3--------3--|-------------------------|
|--------------------------|-------------------------|

|-----------------------3--|--2-----------------0--2/3-||
|--------------------3-----|--------5-----4------------||
|--------0-----0--4--------|--------4-----2-----------*||
|-----0-----0--------------|-----4-----4-----4--------*||
|--------------------------|--2------------------------||
|--3-----------------------|---------------------------||


 Goal 2
|--3---------3-2----------2-|--0-----0---2---3---5---3---2---|
|--0-------0---3--------3---|--0---0---0---0---0---0---0---0-|
|--0-----0-----4------2-----|--0-----------------------------|
|--------------0----0-------|--2-----------------------------|
|--3------------------------|--------------------------------|
|---------------------------|--0-----------------------------|
 
|--0----------0-2-------0-2-3-|--5--7---------------|
|--0--------0---3-----3-------|---------------------|
|--0------0--------2----------|---------------------|
|-------2-------0-------------|---------------------|
|--3--------------------------|---------------------|
|-----------------------------|------------0--------|
 
|-------------------------------|--5*---------------||
|-----7*--7*--7*--7*----7*------|--5*---------------||
|--7*---7*--7*--7*---7*----7*---|-------------------||
|-------------------------------|-------------------||
|-------------------------------|-------------------||
|-------------------------------|-------------------||





















05 - Crucify My Love

Tuning half step down!


    Verse                                                           
D#||----------------------------|-------------------------|
A#||--3--2-2------------0-------|--3--2-3-------5---5/7---|
F#||------------4-----0---------|-------------------------|
C#||----------------0--------2--|------------4------------|
G#||----------------------0-----|---------2---------------|
D#||---------3------------------|-------------------------|
 
|----------------------------|-------------------------|
|--3--2-2------------0-------|--3--2-3-------5---5/7---|
|------------4-----0---------|-------------------------|
|----------------0--------2--|------------4------------|
|----------------------0-----|---------2---------------|
|---------3------------------|-------------------------|
 
|--2--2-3-------7--7-5-------|-----0--2h-3--2p-0-0-------|
|------------0-------2-------|-----------------------3---|
|---------0------------------|--2------------------------|
|-------------------------2--|--------0------------------|
|----------------------0-----|--------------4------2-----|
|----------------------------|---------------------------|
 
|------------------------------|---------------7--------||
|--3--2-2----0--------2h-3--2--|--2--0-0-----7-7--------||
|------------------------------|-----------7---7--------||
|------------------2-----------|------------------------||
|--0------------0--------------|--2---------------------||
|---------3--------------------|------------------------||
 
Repeat Verse playing this end   ----------------7--------||
                                --2--0--------7-7--------||
                                ------------7---7--------||
                                ----------9-----9--------||
                                --2----------------------||
                                --------7----------------||
 

Solo Part I 
||---------------3-5-----3--------|-----------------2---7-5---------|
||--2-----0--0-3---2-----2------2-|--2-----3------3---------8p7-5-3-|
||------0--------------2------2---|------4------4-------------------|
||----0--------------2------2-----|----4------4---------------------|
||-----------------0-----0--------|--2-----2------------------------|
||--3-----------------------------|-------------------7-------------|
 
|-----------3---5-----3-----||
|--2---0--3---3-------5-----||
|------------------2-----2--||
|---------------------------||
|---------------0-----------||
|--3------------------------||



 Bridge
||-----------2-2-2---0---2--|--0------------------------|
||--------2------2----------|--------3--2-3-------------|
||---------------3----------|---------------------------|
||-----4---------4----------|-----4------------4-----4--|
||--1-----------------------|--2------------2-----0-----|
||--------------------------|---------------------------|
 
|--------4-----------------|-------------------0---2-|
|--------5-----0----2--3-2-|-----------2--3----------|
|-----------4--------------|--------2-----2----------|
|--------------2-----------|-----2-------------------|
|-----7--------------------|--0----------------------|
|--4-----------------------|--------------3----------|
 
|-----------2--2-------2--|---------------------------|
|--------2-----2---5------|--5-----3--2-3-------------|
|--------------3----------|---------------------------|
|-----4-------------------|-----4------------4-----4--|
|--1----------------------|--2------------2-----0-----|
|--------------2----------|---------------------------|
 
|--------------7----5--7-5-|-----------------------||
|-----------0--5-----------|--------2--------------||
|--------0-----------------|--------2--------------||
|-----0--------------------|-----2-----2-----------||
|--------------------------|--0-----------1--------||
|--3-----------4-----------|-----------------------||
 


Repeat Verse playing this end   ---------------7----------||
                                --2--0-0-----7-7----------||
                                -----------7---7----------||
                                --------------------------||
                                --2-----------------------||
                                ----------------------7-5-||



Solo Part II
||--------------------5-----|----------2-----2---2---2---2---2-|
||--------3-----------2-----|--------------3---5---3---2-------|
||--------4---------2-------|------4-----4-----------------4---|
||------5---------2---------|----4---4-------------------------|
||----5---------0-----------|--2-------------------------------|
||--3-----------------------|----------------------------------|
 
|--------3--------------4--------|----------5-------5-----3-----||
|--------3------0-------5------2-|--------2---2-----------2-----||
|------0----0---------4------4\2-|------2-------2------2-----2--||
|----0--------0------------------|----2-----------2-------------||
|-------------------7------7-----|--0---------------0-----------||
|--3--------------4--------------|------------------------------||



Repeat Bridge playing this end    --------------9---------||
                                  -----------2--10--------||
                                  --------2---------------||
                                  -----2------------------||
                                  --0-----------0---------||
                                  ------------------------||

 
|-----------------------9-------9-------|
|----------11--------11------11---------|
|------11---------11------11------------|
|--11----------11------------------9*---|
|----------------------------------9*---|
|---------------------------------------|
 


 Verse
||----------------------------|-------------------------|
||--3--2-2------------0-------|--3--2-3-------5---5/7---|
||------------4-----0---------|-------------------------|
||----------------0--------2--|------------4------------|
||----------------------0-----|---------2---------------|
||---------3------------------|-------------------------|
 
|----------------------------|-------------------------|
|--3--2-2------------0-------|--3--2-3-------5----7----|
|------------4-----0---------|-------------------------|
|----------------0--------2--|------------4------------|
|----------------------0-----|---------2---------------|
|---------3------------------|-------------------------|
 
|--2--2-3-------7--7-5-------|-----0--2h-3--2p-0-0-------|
|------------0-------2-------|-----------------------3---|
|---------0------------------|--2------------------------|
|-------------------------2--|--------0------------------|
|----------------------0-----|--------------4------2-----|
|----------------------------|---------------------------|
 
|----------------------------|--9--------------------|--------------------|
|--3/-2-2----0----------0----|--10--------2h-3--2----|------2----0--------|
|--------------------0-------|--9--------------------|--------------------|
|-----------------0----------|-----------------------|--------------------|
|--0-------------------------|-----------------------|------2-------------|
|---------3------------------|-----------------------|--------------------|
 
|--------9--------9--------9-----9--|------------------||
|-----------------------------------|------------------||
|--6--7-----6--7-----6--7-----7-----|------------------||
|-----------------------------------|------------------||
|-----------------------------------|------------------||
|-----------------------------------|------------------||






















06 - Alive


E||------0--------------|--------------2------|------------------|
B||------0--------------|--------------0------|------------------|
G||------2--------------|---------------------|------------------|
D||----2----------------|------------2--------|------------------|
A||---------------------|---------------------|------------------|
E||--0------------------|----------0----------|------------------|
 
|------0--------------|--------------2------|--------------------|
|------0--------------|--------------0------|--------------------|
|------2--------------|---------------------|------------------4-|
|----2----------------|------------2--------|--------------------|
|---------------------|---------------------|--------------------|
|--0------------------|----------0----------|----------------0---|
 
|-----3-----3-----3-----3-|------3-----3-----3-----3-|
|---5-----5-----5-----5---|----5-----5-----5-----5---|
|-------4-----4-----4-----|--4-----4-----4-----4-----|
|-------------------------|--0-----------------------|
|-------------------------|--------------------------|
|-------------------------|--------------------------|
 
|------3-----3-----5-----5-|------5-----3-----2----7--5--||
|----5-----5-----6-----6---|----4-----4-----4------8--7--||
|--5-----5-----5-----5-----|--4-----4-----4--------------||
|--------------------------|-----------------------------||
|--3-----------------------|-----------------------------||
|--------------5-----------|-----------------------------||



                                                                
||--7-----------------------------8---|--7------5-3-2--------3p2-|
||--8-----------------------------10--|--8------7-5-3-----3------|
||-------9---9---9-------9---9--------|----------------2---------|
||-----9---9---9---9---9---9---9------|--0----------0------------|
||------------------------------------|--------------------------|
||--0----------------0----------------|--------------------------|
 
|--3--------0-2-3--------3--|--2----3----5------5--||
|--------1------------1-----|--3----5----7---------||
|-----0------------0--------|----------------------||
|---------------------------|----------------------||
|--3------------0-----------|--2-------------------||
|---------------------------|----------------------||
 



||--7------------7---------|--5--7-------------5p3-|
||--8---------------10--8--|-----------------------|
||-----9-------------------|-----------------------|
||-------------------------|-----------------------|
||-------------------------|--6---------6----------|
||--0---------0------------|-----------------------|
 
|--5-----------------5--|---------------------------|
|--7---------7---8------|--8---------8-8-----8--10--|
|-----7-----------------|--9-------9---9------------|
|-----------------------|--------9--------9---------|
|--5---------6----------|---------------------------|
|-----------------------|--0------------------------|
 
|--7------------7---------|--5--7----------5------|
|--8---------------10--8--|----------------7---8--|
|-----9-------------------|-----------------------|
|-------------------------|-----------------------|
|-------------------------|--6---------6----------|
|--0---------0------------|-----------------------|
 
|--5---------------------|--------------7--7--7--||
|--7---------7---8---10--|--8-----------8--8--8--||
|-----7------------------|--9--------------------||
|------------------------|-----------------------||
|--5---------6-----------|-----------------------||
|------------------------|--0--------0-----------||



 
||--7----8-----7------7-5-|--7----8-----7------7-8-|
||--8----10----8------8-7-|--8----10----8----------|
||------------------------|------------------------|
||------------------------|--0----------0----------|
||------------------------|------------------------|
||--0----------0----------|------------------------|
 
|--10------------8-------7----|--7-------8-------7------7-5-|
|--10----10/-12--10--------10-|------7-------7---7------8-7-|
|-----------------------------|----8---8---8---8------------|
|-----------------------------|-----------------------------|
|----------------0------------|-----------------------------|
|--8--------------------------|--7--------------------------|
 
|--7----8-----7------7-5-|--7----8-----7------7/8-|
|--8----10----8------8-7-|--8----10----8----------|
|------------------------|------------------------|
|------------------------|--0----------0----------|
|------------------------|------------------------|
|--0----------0----------|------------------------|
 
|--10------------8-------7----|--7-------8-------7--------------7--|------------------||
|--10----10/-12--10--------10-|------7-------7---7-----------7-----|------------------||
|-----------------------------|----8---8---8---8----------8--------|------------------||
|-----------------------------|------------------------9-----------|------------------||
|----------------0------------|---------------------9--------------|------------------||
|--8--------------------------|--7---------------7-----------------|------------------|| 




||------------7-5-7---------8--7-|--8----------10-8--10-------------|
||------------8-7-8---------10-8-|--10---------12-10-12-------------|
||-------------------------------|----------------------------------|
||-------------------------------|----------------------------------|
||-------------------------------|----------------------------------|
||--0--0-0-0------0--0-0-0-------|--0---0-0-0--------0---0-0-0--0-0-|
 
|------------7-5-7---------8--7-|--8----------10-8--10-------------|
|------------8-7-8---------10-8-|--10---------12-10-12-------------|
|-------------------------------|----------------------------------|
|-------------------------------|----------------------------------|
|-------------------------------|----------------------------------|
|--0--0-0-0------0--0-0-0-------|--0---0-0-0--------0---0-0-0--0-0-|
 
|-----5--5--5--5--3--2--3--|--------------------0-----|
|-----7--7--7--7--------1--|--------------1--------1--|
|--------------------------|--------0--------0--------|
|--0-----------------------|-----2-----2--------------|
|--------------------------|--3-----------------------|
|--------------------------|--------------------------|
 
|-----5--5--5--5-----5--7--|-----------------------7--|
|-----7--7--7--7--8--------|--------------7-----7-----|
|--------------------------|-----------8-----8--------|
|--0-----------------------|--------9-----------------|
|--------------------------|-----9--------------------|
|--------------------------|--7-----------------------|
 
|-----7--7--7--7--7--5--3--|--5--7----7---------------|
|-----8--8--8--8--8--7--5--|--7--8----8-----7h8-10----|
|--------------------------|--------------------------|
|--------------------------|--0----------0------------|
|--------------------------|--------------------------|
|--0-----------------------|--------------------------|
 
|-----7--7--7--7--7--5--7--|--10-----------------------------|
|-----8--8--8--8--8--7--8--|--12--12--10--12----10--10--8-10-|
|--------------------------|---------------------------------|
|--------------------------|--0------------------------------|
|--------------------------|---------------------------------|
|--0-----------------------|---------------------------------|
 
|----------------------------7-|---------------------||
|----------------------8--10-7-|---------------------||
|---------10-------------------|------------8--------||
|-----10------10---------------|------------9--------||
|------------------------------|---------9-----------||
|--8--------------8------------|--7------------------||
 



||--3-----3--------3--3-3/5-|--7-----------------------|
||--5-----5--------5--5-----|--7-----------------------|
||-----5-----5--------------|--------8-----------8-----|
||--------------------------|-----9-----9-----9-----9--|
||--3-----------3-----------|--9-----------9-----------|
||--------------------------|--------------------------|
 
|---------------------------|--7-----------7--------7--|
|--8-----8--------7--8--10--|--7-----------7----10-----|
|--9-----9------------------|-----------8--------------|
|-----9-----9---------------|--------9-----------------|
|---------------------------|-----9--------------------|
|--7-----------7------------|--7-----------------------|
 
|--8----------------8---7--8--|--7-----------------5--7--|
|--10---------------5---------|--8-----0-----0-----------|
|----------9--------5---5--5--|--------0-----0-----------|
|------10-----10--------------|-----0-----0-----0--------|
|--0--------------0-----------|--------------------------|
|-----------------------------|--0-----------------------|

|--8------------------8---10--8--|--7---------------------7--|
|--10-----------------10---------|--8-----------------10-----|
|----------10--------------------|--------9------------------|
|------10------10----------------|-----9-----9-----9---------|
|--8---------------8-------------|---------------------------|
|--------------------------------|--0-----------0------------|
 
|--8----------------8----7--8---|--7--------------------7--|
|--10---------------10---8--10--|--8----------12*---10-----|
|----------9--------------------|-------------12*----------|
|------10-----10----------------|--9------12*--------------|
|--0--------------0-------------|--------------------------|
|-------------------------------|--------------------------|
 
|--8------------8---------8--|--10---------10--------10--|
|------------8--10---12------|------------------12-------|
|---------9------------------|--11---------11------------|
|-----10---------------------|--0-------0----------------|
|----------------------------|---------------------------|
|--8-------------------------|---------------------------|
 
|--14--------------14---------||
|--------------13--13---------||
|----------14------14---------||
|------12----------12---------||
|-----------------------------||
|---------------------------0-||
 



||------------------------------|-----------------------0--|
||--0------------0--------0--1--|--0-----------------0-----|
||--------0--4p2-------2--------|--------0-----------------|
||-----2------------2-----------|-----0-----0-----2--------|
||------------------------------|--------------------------|
||---------------2--------------|--3-----------4-----------|
 
|------------------------0--|--------0-----2-----3--2--|
|-----------1p0-1--1--3-----|--4-----------------3--3--|
|--------2------------------|-----0-----0-----0--------|
|-----2---------------------|--------------------5--4--|
|--0------------3-----------|--2-----------------------|
|---------------------------|--------------------------|
 
|------------------------------|-----------------------0--|
|---------------0--------0--1--|--0-----------------0-----|
|-----------4p2-------2--------|--------0-----------------|
|--------2---------0-----------|-----0-----0-----2--------|
|-----2------------------------|--------------------------|
|--0------------2--------------|--3-----------4-----------|
 
|--------------------------0-|--------0-----2--------||
|-----------1p0-1--------3---|--4-----------4--------||
|--------2------0-----0------|-----0-----0--4--------||
|-----2------------2---------|--------------4--------||
|--0------------3------------|--2-----------2--------||
|----------------------------|-----------------------||



 
||--------12--12--10------------|--7-----------------------|
||--------8---------------12-10-|--8-----------------------|
||-----9----------11------------|--------------------------|
||----------------0-------------|--9--------9--------7--9--|
||------------------------------|-------10--------6--------|
||--8---------------------------|--------------7-----------|
 
|--------8---8--10---------10-|--12-10-12------------0-----|
|--------10-------------12----|----------------------0-----|
|-----9---------11------------|--12-11-12---------0--------|
|---------------0-------------|-------------------------2--|
|-----------------------------|----------------------------|
|--8--------------------------|--0-------------0-----------|
 
|-----0--12--12--10------------|-------10-------------------|
|------------------------12-10-|--12------12----------------|
|--------12------11------------|--0-------------------------|
|----------------0-------------|----------------------7--9--|
|------------------------------|-------------------6--------|
|--8---------------------------|----------------7-----------|
 
|---------8--8--10----------||
|---------8-------------10--||
|------9--------11----------||
|--10-----------0-----------||
|---------------------------||
|--8------------------------||



 
||--7------------7---------|--5--7-------------5p3-|
||--8---------------10--8--|-----------------------|
||-----9-------------------|-----------------------|
||-------------------------|-----------------------|
||-------------------------|--6---------6----------|
||--0---------0------------|-----------------------|
 
|--5-----------------5--|---------------------------|
|--7---------7---8------|--8---------8-8-----8--10--|
|-----7-----------------|--9-------9---9------------|
|-----------------------|--------9--------9---------|
|--5---------6----------|---------------------------|
|-----------------------|--0------------------------|
 
|--7------------7---------|--5--7----------5------|
|--8---------------10--8--|----------------7---8--|
|-----9-------------------|-----------------------|
|-------------------------|-----------------------|
|-------------------------|--6---------6----------|
|--0---------0------------|-----------------------|
 
|--5---------------------|--------------------------||
|--7---------7---8---10--|--8-----8-----8-----8-----||
|-----7------------------|--9-----9-----9-----9-----||
|------------------------|-----9-----9-----9-----0--||
|--5---------6-----------|--------------------------||
|------------------------|--0-----------------------||
 



||--------12--12--10------------|--7-----------------------|
||--------8---------------12-10-|--8-----------------------|
||-----9----------11------------|--------------------------|
||----------------0-------------|--9--------9--------7--9--|
||------------------------------|-------10--------6--------|
||--8---------------------------|--------------7-----------|
 
|--------8---8--10---------10-|--12-10-12------------0-----|
|--------10-------------12----|----------------------0-----|
|-----9---------11------------|--12-11-12---------0--------|
|---------------0-------------|-------------------------2--|
|-----------------------------|----------------------------|
|--8--------------------------|--0-------------0-----------|

 
|-----0--12--12--10------------|-------10-------------------|
|------------------------12-10-|--12------12----------------|
|--------12------11------------|--0-------------------------|
|----------------0-------------|----------------------7--9--|
|------------------------------|-------------------6--------|
|--8---------------------------|----------------7-----------|
 
|---------8--8--10--------|----------10----------|
|---------8-----12--------|--12------------------|
|------9------------------|----------------------|
|--10-----------12--------|----------------------|
|-------------------------|----------------------|
|-------------------------|----------------------|
 
|--12---10-----12--------|-------------------3-2-----|
|------------------------|-----------------5---------|
|------------------------|---------------4--------4--|
|------------------------|-----------2/5-------------|
|------------------------|-------2-------------------|
|------------------------|--0------------------------|
 
|--0--------------------|------------------||
|-----------------------|------------------||
|----------------9------|------------------||
|--------------9--------|------------------||
|---------7-------------|------------------||
|-------0---------------|------------------||

















07 - Say Anything



E||------------------|-------------------------|
B||------------------|--1---0-0--------------0-|
G||------------------|--0------------------0---|
D||------------------|-------------------0-----|
A||------------------|-------------------------|
E||------------------|--3----------3-----------|
 
|-------------------------|--0-----------0--2--3------|
|--1---0-0-------------0--|--------0--------------0-1-|
|-------------------2-----|-----0-----0---------------|
|--1-------------1--------|---------------------------|
|--2----------2-----------|---------------------------|
|-------------------------|--0------------------------|
 
|-----------0--------------|-------------------------|
|--------------3--------3--|--1---0-0--------------0-|
|--------0-----------5-----|---------------------0---|
|-----2-----------4--------|--0----------------0-----|
|--3-----------5-----------|-------------------------|
|--------------------------|--3----------3-----------|
 
|-------------------------|---------------------------|
|--1---0-0-------------0--|--1-----------1--0-----0---|
|-------------------2-----|--------0-----------2----2-|
|--1-------------1--------|-----2-----2---------------|
|--2----------2-----------|--3------------------------|
|-------------------------|---------------------------|
 
|--------2-----------2-----|-----------2--5---------||
|-----3-----3-----3-----3--|--------3-----7---------||
|--------------2-----------|-----2-------------5----||
|--0-----------------------|--0---------------------||
|--------------------------|------------------------||
|--------------------------|------------------------||
 


 Verse
||-----3--3-3--2---0----------|--3--3--5--3-3------------|
||-----0-------------3----3-3-|--0-----------------------|
||-----0----------------------|--0-----------------------|
||----------------------------|--------------------2--0--|
||---------------2------------|--------------------------|
||--0-------------------------|--0------------0----------|
 
|-----3--3-3--3-2--0---------|--------------3-----2-----|
|-----1---------1----3--3/5--|--3-----3-----3-----3-----|
|-----0---------0------------|-----2-----2-----2-----2--|
|----------------------------|--0-----------------------|
|--3------------0------------|--------------------------|
|----------------------------|--------------------------|
 
|-----3--3---3-2--0---------|--3--3--5/-3-3-------------|
|-----0-------------3---3-3-|--0------------------------|
|-----0---------------------|--0------------------------|
|---------------------------|---------------------2--0--|
|--------------2------------|-----------------(2)-------|
|--0------------------------|--0------------0-----------|
( ) This note is not played while playing Verse 2nd time
 
|-----3--3-3--3-3------3-3-|--5-----------5----7----||
|-----1---------1----5-----|--7-----7-----7---------||
|-----0---------0----------|-----7-----7------------||
|--------------------------|--0---------------------||
|--3------------0----------|------------------------||
|--------------------------|------------------------||



 Chorus
||--5p3--3------5--5--5-5--7-|--5---3-------------7---5-|
||--3--------3--7------------|--7---5------5------------|
||--4------------------------|-----------4--------------|
||--------------0------------|---------5----------------|
||---------------------------|--------------------------|
||--3------------------------|--0------------0----------|
 
|--5p3--3------5--5--5-5--7-|--5-----------5----7----|
|--5--------5--5------------|--7-----7-----7---------|
|--------------5------------|-----7-----7------------|
|---------------------------|--0---------------------|
|--3-----------0------------|------------------------|
|---------------------------|------------------------|
 
|--5p3--3------5--5--5-5--7-|--5---3-------------7---5-|
|--3--------3--3------------|--7---5------5------------|
|--4------------------------|-----------4--------------|
|---------------------------|---------5----------0-----|
|--3------------------------|--------------------------|
|--------------2------------|--0------------0----------|
 
|--5p3--3------5--5--5-5--7-|--5-----------------------||
|--5--------5--5------------|--7-----7-----8-----7-----||
|---------------------------|-----7-----7-----7-----7--||
|---------------------------|--0-----------------------||
|--3-----------4------------|--------------------------||
|---------------------------|--------------------------||



 Bridge 
||-----0--0-3--2----0--------|-----------------------------|
||-----1---------------3-----|--0--3-3------0-1-----0------|
||-----0------------------2--|------------0---0---0-0------|
||---------------0-----------|----------0-------0-------0--|
||--3------------------------|-----------------------------|
||---------------------------|--3-------------3-----3------|
 
|-----0--0-3--2----2/-5--5--|--7----------------------12*-|
|-----1-------3-------7-----|--8-10--8------------12*-----|
|-----0---------------------|--9--------------12*---------|
|---------------0-----------|-----------------------------|
|--3------------------------|-----------------------------|
|---------------------------|--0-----------0--------------|
 
|-----0--0-3--2----0--------|-----------------------------|
|-----1---------------3-----|--0--3-3------0-1-----0------|
|-----0------------------2--|------------0---0---0-0------|
|---------------0-----------|----------0-------0-------0--|
|--3------------------------|-----------------------------|
|---------------------------|--3-------------3-----3------|
 
|-----0--0-0--0---0----0---|-----3--3-3--3---3--0-3--5-|
|-----1--------------3-----|-----1-------------------7-|
|-----0--------------------|-----0---------------------|
|--------------------------|-----2---------------------|
|--3-----------------------|--3------------------------|
|--------------------------|---------------------------|
 
|-------------------2------|--------2------------5----||
|-------------------3------|-----3-------0----7-------||
|----------------2-------0-|--2--------2---5----------||
|--0------0-2-4--------4---|---------------0----------||
|--------------------------|--------------------------||
|--------------------------|--------------------------||



Repeat Verse

Repeat Chorus playing this end   --5--------7----5----||
                                 --7------------------||
                                 ---------------------||
                                 --0------------------||
                                 ---------------------||
                                 ---------------------||



End                                               
||--5p3--3----------7---5-|--5p3--3--------------0--|
||--0---------------------|--0----------------0-----|
||--0---------------------|--0-------------0--------|
||-------------4----------|-------------0-----------|
||------------------------|-------------------------|
||------------------------|-------------------------|
 
|--8------8--10-8---------------|--10----10--10--12--10----10---8-|
|---------------------------10--|---------------------------------|
|------9-----------------9------|--11----11--11--12--11-----------|
|--10----------------10---------|--0------------------------------|
|-----------------0-------------|---------------------------------|
|-------------------------------|---------------------------------|
 
|--8p7--7----------10---8-|--8p7--7-----------------|
|--8----------------------|--8----------------------|
|--0----------------------|-------------------------|
|-------------------------|-------------------2--0--|
|-------------9-----------|----------------2--------|
|-------------------------|--0----------0-----------|
 
|-----------0-----------0--|-----------0--2-----------|--3^---------------||
|--------1-----------2-----|--------1-----1-----1-----|--0l---------------||
|-----0-----------0--------|-----0-----------2-----2--|--2l---------------||
|--------------------------|--0-----------0-----------|-------------------||
|--3-----------4-----------|--------------------------|-------------------||
|--------------------------|--------------------------|--3l---------------||



























08 - Tears




E||--------2--------0-----0--|--------2-----5--------2--|
B||-----3-----3--------------|-----2-----2--------------|
G||--2-----------2-----1-----|--2-----------------2-----|
D||--------------------------|--0--------------4--------|
A||--2-----------4-----------|--------------------------|
E||--------------------------|--------------------------|
 
|--5-----------5-----4-----|--5----------------7----|
|--3-----------5-----------|--7-----7----------9----|
|--------2--------4-----4--|-----7-----7------------|
|-----4-----4--------------|--0---------------------|
|--2-----------4-----------|------------------------|
|--------------------------|--------------0---------|
 
|--9-----------------------7p5-|--7-----------------------|
|--10-----10-----------10------|--9-----------------------|
|------9------9-----9----------|--------9-----------9-----|
|------------------------------|-----9-----9-----9-----9--|
|--0-------------0-------------|--------------------------|
|------------------------------|--0-----------0-----------|
 
|--5--------2--4--2--4----|--5-----------------7----|
|--------2----------------|--------7-----------7----|
|-----2-------------------|-----6-----6-----6-------|
|-------------------------|--0-----------0----------|
|-------------------------|-------------------------|
|--2-----------0----------|-------------------------|
 
|--5--------------------4p2-|--4--------12*----------||
|--5-----5-----------5------|--5--------12*---2--0-2-||
|-----4-----4-----4---------|------------------------||
|---------------------------|------------------------||
|---------------------------|------------------------||
|--0-----------0------------|--0---------------------||



  Verse 
||-----------------0--2--4-5-|-------------------------|
||---------------------------|-----2----------------2--|
||--------2------------------|-------------------2-----|
||-----2-----2---------------|----------------2--------|
||--0------------------------|-------------------------|
||--------------4------------|--2-------2--0-----------|
 
|--2----2----0------------|--------------0-----------|
|--2---------0--0--2--3-2-|--------------2----2--0-2-|
|--2---------1------------|--------2-----------------|
|--0---------0------------|-----2-----2--------------|
|-------------------------|--0-----------------------|
|-------------------------|--------------------------|
 
|-----------------0--2--4--|--5--------7--5--------2--|
|--------------------------|--------2-----------2-----|
|--------2-----------------|-----2-----------2--------|
|-----2-----2--------------|--------------------------|
|--0-----------------------|--------------------------|
|--------------4-----------|--2-----------0-----------|
 
|--5----5----4--2--4----|--5----------------0----|
|--7--------------------|--------3-----2----0----|
|-----------------------|--------2-----2---------|
|--0--------------------|-----2-----2------------|
|-----------------------|--0-----------0---------|
|------------0----------|-------------------4----|
 
|--------5--4-5---4--2------|--------------------------|
|-----2-----------------2-5-|--------------5-----------|
|---------------------------|--------6-----------6-----|
|---------------------------|-----6-----6-----6-----6--|
|---------------------------|--4-----------------------|
|--2------------------------|--------------------------|
 
|-----2--2--0-2---2--2-0----|--------------0---------|
|-----2---------------------|--0----------------0----|
|-----2-------------------2-|--------1----------1----|
|--0------------------------|-----2-----2------------|
|---------------------------|------------------------|
|---------------------------|--0----------------1----|
 
|--------5--4-5---5--4--5--|--7---4---0----0--0--0-2-|
|-----2--------------------|--5----------------------|
|--------------------------|-------------------------|
|--------------------------|-------------------------|
|--------------------------|--4----------------------|
|--2-----------------------|-------------------------|
 
|-----------2--2----4--5-7-|--------------12*-------||
|--------2-----2-------7-9-|--------------12*-------||
|-----2--------2-----------|--------9---------------||
|--0-----------0-----------|-----9-----9------------||
|--------------------------|------------------------||




 Bridge                                                      
||------------------------2---|--------------------------|
||-----2--2--0-2----2--5----2-|--------------------------|
||----------------------------|-----------2-----------1--|
||----------------------------|--------4-----------2-----|
||--0-------------------------|-----4-----------4--------|
||---------------4------------|--2-----------0-----------|
 
|---------------------------|---------------------0-----|
|-----3--3--2-3----2--0-----|--2--------0-0----------3--|
|------------------------2--|--------1------------------|
|--0------------------------|-----2------------2--------|
|---------------2-----------|---------------------------|
|---------------------------|--0------------0-----------|
 
|------------------------2---|--------------------------|
|-----2--2--0-2----2--5----2-|--------------------------|
|----------------------------|-----------2-----------1--|
|----------------------------|--------4-----------2-----|
|--0-------------------------|-----4-----------4--------|
|---------------4------------|--2-----------0-----------|
 
|---------------------0--2-4-|--------------5----4----||
|-----3--3--2-3----3---------|-----------0-------5----||
|----------------------------|--------1---------------||
|--0-------------------------|-----2------------------||
|---------------2------------|------------------------||
|----------------------------|--0---------------------||
 


 Chorus
||--5----------------4---5-|--------------5----4----|
||--7-----7----------0---2-|--------2----------5----|
||--6--6-----6-------------|-----2-----2------------|
||--0----------------------|------------------------|
||-------------------------|------------------------|
||--------------0----------|--2---------------------|
 
|--5----------------4---5-|--------------------------|
|--7-----7----------5---3-|-----------3-----------5--|
|--6--6-----6-------------|--------2-----------4-----|
|--0----------------------|-----4-----------6--------|
|-------------------------|--2-----------4-----------|
|--------------0----------|--------------------------|
 
|--------------5-----------|--5-----------5-----4-----|
|-----------7-----------7--|--3-----------5-----------|
|--------6-----------6-----|--------2--------4-----4--|
|-----7-----------7--------|-----4-----4--------------|
|--5-----------------------|--2-----------4-----------|
|--------------------------|--------------------------|
 
|--5-----------------5-----|--0-----0-----0-----0-----|
|--7-----7--------7-----7--|--0-----0-----0-----0-----|
|-----7-----7--6-----------|--2-----2-----2-----2-----|
|--0-----------0-----------|-----2-----2-----2-----2--|
|--------------------------|--------------------------|
|--------------------------|--0-----------------------|
 
|--0-----------12*----------||
|--0--------0--12*---2--0-2-||
|--1-----1------------------||
|-----2---------------------||
|---------------------------||
|--0------------------------||
 



Repeat Verse playing this end   --------------12*----------||
                                --------------12*----------||
                                --------9---------------1--||
                                -----9-----9---------2-----||
                                ------------------2--------||
                                --0------------------------||



 Bridge
||--------------------------|-----0--0----0----0--3--5-0-|
||--0-----0-----1-----3-----|-----1-----3----------------|
||--0-----0-----2-----4-----|-----0----------------------|
||-----0-----0-----0-----0--|----------------------------|
||--------------------------|--3------------2------------|
||--3-----------------------|----------------------------|
 
|--------------------------|-----1--1--0-1----0--------|
|-----------1-----------1--|-----1---------------3--1--|
|--------2-----------0-----|-----2---------------------|
|-----2-----------2--------|---------------0-----------|
|--0-----------------------|---------------------------|
|--------------3-----------|--1------------------------|
 
|--0------------------------|-----0--0----0----0--3--5-0-|
|--0--------3-3-------------|-----1-----3----------------|
|---------------------0-----|-----0----------------------|
|--------0---------------3--|----------------------------|
|-----2------------2--------|--3------------2------------|
|--3------------3-----------|----------------------------|
 
|--------------------------|-----1--1--0-1----1--3--5--||
|-----------1-----------1--|-----1---------------------||
|--------2-----------0-----|-----2---------------------||
|-----2-----------2--------|---------------0-----------||
|--0-----------------------|---------------------------||
|--------------3-----------|--1------------------------||



 Chorus 
||--7--------8----7----|--8--------------------------8--|
||--8-------------8----|--10----------10--------12---10-|
||--0------------------|----------10------------12------|
||---------------------|------10------------------------|
||---------------------|--8---------------10------------|
||---------------------|--------------------------------|
 
|----------------8-----------|--8--------------------------8--|
|------------10--10----12----|--10----------10--------12---10-|
|---------9------------12----|----------10------------12------|
|-----10---------10----------|------10------------------------|
|--0-------------------10----|--8---------------10------------|
|----------------------------|--------------------------------|
 
|----------------8-----------|--8--------------------------8--|
|------------10--10----12----|--10----------10--------12---10-|
|---------9------------12----|----------10------------12------|
|-----10---------------------|------10------------------------|
|--0-------------0-----10----|--8---------------10------------|
|----------------------------|--------------------------------|
 
|----------------8-----------|--8------------------|
|------------10--10----12----|--10--------8--------|
|---------9------------12----|---------------------|
|-----10---------------------|---------------------|
|--0-------------------10----|--8------------------|
|----------------------------|---------------------|
 
|--7--------1-------------|------1-------1---------------|
|--8--------1---------1---|--------1---1----1------------|
|-------------------2---2-|----2-----2---------2---------|
|-----------------3-------|--3--------------------3------|
|---------------3---------|------------------------------|
|-----------1-------------|------------------------------|
 
|--0^---------------||
|--1l---------------||
|--0l---------------||
|--2l---------------||
|--3l---------------||
|-------------------||





















09 - Amethyst




E||-----------0------------12*-|---------------------|
B||--------0-----------12*-----|---------------------|
G||-----0----------12*---------|------------0-----0--|
D||----------------------------|---------------4-----|
A||----------------------------|---------------------|
E||--8-------------------------|---------------------|
 
|----------0------------12*-|---------------------|
|----------0--------12*-----|---------------------|
|-------0-------12*---------|------------------0--|
|--2------------------------|------------2--4-----|
|--0------------------------|---------------------|
|---------------------------|---------------------|
 
|-----------0------------12*-|------------0--2--3--|
|--0-----0-----------12*-----|---------------------|
|-----0----------12*---------|---------------------|
|----------------------------|---------------------|
|--3-------------------------|---------------------|
|----------------------------|---------------------|
 
|--3-----2-----------0----|-------------------||
|--3-----3-----------1----|--4----------------||
|-----2-----2-----2-------|--4----------------||
|--0-----------0----------|-------------------||
|-------------------------|--2----------------||
|-------------------------|-------------------||




||---------0-2-3---2---0--|--2-------------------|
||--0---------------------|------3-----0---------|
||--0---------------------|----------2-----------|
||--2---------------------|----------------------|
||--3---------------------|--2-------------------|
||------------------------|----------------------|
 
|------------3----2--0--|--2----------------|
|--1------1-------------|--3----------------|
|--0--------------------|--4----------------|
|--2--------------------|-------------------|
|--0--------------------|-------------------|
|-----------------------|--3----------------|
 
|---------0-2-3---2---0--|--2-------------------|
|--0---------------------|------3-----0---------|
|--0---------------------|----------2-----------|
|--2---------------------|----------------------|
|--3---------------------|--2-------------------|
|------------------------|----------------------|
 
|------------3----3-5---|--2----------------||
|--1------1-------------|--3----------------||
|--0--------------------|--2----------------||
|--2--------------------|--0----------------||
|--0--------------------|-------------------||
|-----------------------|-------------------||
 



||------------0-2-3---2---0--|--2---------------------|
||---------0-----------------|------3-----0------0----|
||*--------0-----------------|----------2------2p0----|
||*-----2--------------------|------------------------|
||---3-----------------------|--2---------------------|
||---------------------------|------------------------|
 
|------------3----2--0--|--2---------------------|
|---------1-------------|--3---------------0--3--|
|--0--------------------|------------0--2--------|
|--2--------------------|--0------4--------------|
|--0--------------------|------------------------|
|-----------------------|------------------------|
 
|-----------0-2-3---2---0--|--2---------------------|
|--0-----------------------|------3-----0------0----|
|--------0-----------------|----------2------2------|
|-----2--------------------|------------------------|
|--3-----------------------|--2---------------------|
|--------------------------|------------------------|
 
|------------3----3-5---|--2-----------2----3--5-7-||
|-------1---------------|--3-----3-----3-----------||
|--0--------------------|-----2-----2--------------||
|--2--------------------|--0-----------------------||
|--0--------------------|--------------------------||
|-----------------------|--------------------------||




||-----------------------0--|--7--5----------------5---|
||--------0-----------0-----|--5-----8--7-8---5--8-----|
||-----0-----0-----0--------|--5-----------------------|
||--------------------------|--------------------------|
||--------------------------|--------------------------|
||--8-----------8-----------|--------------------------|
 
|--7-----------------------|--7--5----------------5---|
|--------------5-----------|--5-----8--7-8---5--8-----|
|--------5-----------5-----|--5-----------------------|
|-----5-----5-----5-----5--|--------------------------|
|--0-----------------------|--------------------------|
|--------------------------|--------------------------|
 
|--7--------------------0--|--7--5----------------5---|
|--------0-----------0-----|--5-----8--7-8---5--8-----|
|-----0-----0-----0--------|--5-----------------------|
|--------------------------|--------------------------|
|--------------------------|--------------------------|
|--8-----------8-----------|--------------------------|
 
|--2-----------------------|-------7----5----7----||
|--------3-----------3-----|----------------------||
|-----2-----2-----2-----2--|----------------------||
|--0-----------0-----------|----------------------||
|--------------------------|--6-------------------||
|--------------------------|----------------------||



 
||--12----------------------|-------10----10----7----|
||------12--10--12----------|------------------------|
||--------------------------|-------11----11----7----|
||--10----------------------|--0---------------------|
||--------------------------|------------------------|
||--------------------------|------------------------|
 
|--5--7---------------2--|--0----7----5----7----|
|------------------3-----|--0----8----7----8----|
|--0------------2--------|--0-------------------|
|------------4-----------|----------------------|
|------------------------|----------------------|
|------------------------|--0-------------------|

|--12----------------------|-------10----10----14----|
|------12--10--12----------|-------------------------|
|--------------------------|-------11----11----------|
|--10----------------------|--0----------------------|
|--------------------------|-------------------------|
|--------------------------|-------------------------|
 
|--14--12-------------------|------------------------|
|--------------------0------|------------------------|
|-----------------2-----2p0-|--1----2/4----2----4----|
|---------------------------|--2---------------------|
|---------------------------|--2---------------------|
|--0-----------0------------|--0---------------------|
 
|--0-------------------0--|------------------------|
|--0--0-----0----------0--|-------1/3----3----0----|
|--0-----2----------0-----|------------------------|
|--2-------------2--------|--0---------------------|
|--3----------------------|------------------------|
|-------------------------|------------------------|
 
|----------------------2--|--0-------------------|
|-----0-------------3-----|--0----0---------0----|
|--2-------------2--------|--0----0----2----0----|
|-------------------------|------------4---------|
|-------------------------|----------------------|
|--3-------3--2-----------|--0-------------------|
 
|--0----------------------|-----------------2----|
|--0--0-----0----------0--|-------0----4---------|
|--0-----2----------0-----|------------2---------|
|--2-------------2--------|--0-------------------|
|--3----------------------|------------2---------|
|-------------------------|----------------------|

 Goal 1 
|--2---0-------------|-------------5---------||
|--0-----------------|----------7*-7---------||
|--0-----------------|-------7*-------------*||
|--------------------|----7*----------------*||
|--3-----------------|-----------------------||
|--------------------|-----------------------||


 Goal 2                                                   
|--2--0----0-------------|-------------12*---------|
|--0--0----0----------0--|-------------12*---------|
|--0--0----0-------0-----|---------12*---------12*-|
|---------------2--------|-------------------------|
|--3---------------------|--3----------------------|
|------------------------|-------------------------|
 
|--2--0----0----------0--|-------------12*-------|
|--1--1----1----------1--|-------------12*-------|
|--2--2----2-------2-----|---------12*-----------|
|---------------2--------|-----------------------|
|--0---------------------|--0--------------------|
|------------------------|-----------------------|
 
|--2--0----0-----------0--|------------0--------|
|--1--1----1---------1----|------------1--------|
|--2--2----2-------2------|------------2--------|
|---------------2---------|---------2-----------|
|-------------------------|---------------------|
|--2----------------------|--2------------------|
 
|-----------------0-----|----------------0^---|------------------||
|-------------2-4-----4-|----------------0l---|------------------||
|-----------------------|----4-----------1l---|------------------||
|----2------------------|---------4------2l---|------------------||
|----2------------------|----------------2l---|------------------||
|----0------------------|----------------0l---|------------------||



comments
print report bad tab
I want to post or [tab]
guest
You may want to rate the tab now too:
select rating
Please do not post tabs as comments. Select "correction" instead!