Oops, an error
Loading. Please wait.

I Believe In You Tab

2,039 views 1 this week
no commentswrite comment
1 2 3 4 5
excellent!
x 1
add to favorites launch autoscroll
font size
0
reset
Autoscroll
+/-
esc
set tempo
stop
Contributor
Difficulty
intermediate
WARNING: You are trying to view
                                    content from Ultimate-Guitar.com
                                    in an unauthorized application,
                                    which is prohibited.

                                    Please use an official Ultimate
                                    Guitar Tabs application for iPhone,
                                    iPad or Android to access legitimate
                                    chords, guitar, bass, and drum tabs
                                    from Ultimate-Guitar.com database.

                                    Type "ultimate guitar tabs" in Apple
                                    App Store's or Android Market's
                                    search to find the application.
------------------------------------------------------------------------------
I Believe in You - Y&T
-------------------------------------------------------------------------------
Tabbed by:Errol B.
Email:Indeans48@yahoo.com

Tuning:standard

Note: I tried to tab the solos out as acurate as i could so if i missed something 
or got something wrong let me know. thank you

  Intro/Verse Riff
e|---------------------------------------------------------------------------|
B|---------------------------------------------------------------------------|
G|----3-----3-------3----3-------3--------5---------5-------5---5-----5------|
D|------3------3------------3-------3---------5--------5----------5-----5----|
A|--------3-------3------------3--------3---------5-------5---------5-----5--|
E|-3-------------------------------------------------------------------------|

e|---------------------------------------------------------------------------|
B|---------------------------------------------------------------------------|
G|--5--------5-------5----5-------5-------6--------6------6----6------6------|
D|-----5--------5------------5-------5--------7-------7-----------7-----7----|
A|--------5--------5------------5-------5---------8------8-----------8----8--|
E|---------------------------------------------------------------------------|
    From 2nd Verse into Chorus
e|---------------------------------------------------------------------------|
B|---------------------------------------------------------------------------|
G|---------------------------------------------------------------------------|
D|-8-8-8-8-8-8-8-8-8-8-8-8-8-8-8-8-------------------------------------------|
A|-8-8-8-8-8-8-8-8-8-8-8-8-8-8-8-8-------------------------------------------|
E|-6-6-6-6-6-6-6-6-6-6-6-6-6-6-6-6-------------------------------------------|
   Chorus
e|---------------------------------------------------------------------------|
B|---------------------------------------------------------------------------|
G|-7--7-7--7-7--7--7--5--5-5--5-5/7\5--5-------------------------------------|
D|-7--7-7--7-7--7--7--5--5-5--5-5/7\5--5--7--7-7--7-7--7--7---8--8-8--8-8-8--|
A|-5--5-5--5-5--5--5--3--3-3--3-3/5\3--3--7--7-7--7-7--7--7---8--8-8--8-8-8--|
E|----------------------------------------5--5-5--5-5--5--5---6--6-6--6-6-6--|
   Solo 1        (use delay or echo effect)

e|----------------------15---------------12----------------------------------|
B|--15~\---15-17-15-17-------14-17-14-17-------------------------------------|
G|---------------------------------------------12b-br-12b-br-----------------|
D|---------------------------------------------------------------------------|
A|---------------------------------------------------------------------------|
E|---------------------------------------------------------------------------|
    (with heavier distorted or overdrive sound)

e|----------------------------------------------13-12h13p12----12------------|
B|--13---13---13---13---13---13---13---13--15---------------15-------15------|
G|-----14---14---14---14---14---14---14---------------------------------14---|
D|---------------------------------------------------------------------------|
A|---------------------------------------------------------------------------|
E|---------------------------------------------------------------------------|

e|--13-12h13p12-----12-------------13-12h13p12------12-----------------------|
B|--------------15------15---------------------15-------15-------------------|
G|-------------------------14------------------------------14----------------|
D|---------------------------------------------------------------------------|
A|---------------------------------------------------------------------------|
E|---------------------------------------------------------------------------|

e|---13-12h13p12------12-------------12h13--15b15b15b--15p13-15b15b-15p13----|
B|----------------15------15-------------------------------------------------|
G|----------------------------14---------------------------------------------|
D|---------------------------------------------------------------------------|
A|---------------------------------------------------------------------------|
E|---------------------------------------------------------------------------|

e|-15b-15b-----17b--15p13-15b15b15b-15---15-17-18/20--18-17-15---------------|
B|---------------------------------------------------------------------------|
G|---------------------------------------------------------------------------|
D|---------------------------------------------------------------------------|
A|---------------------------------------------------------------------------|
E|---------------------------------------------------------------------------|

e|--15h17---18b18b18b18--15h17---18b18b18b18b--18b-18-18-17-17-18-18-20-20---|
B|---------------------------------------------------------------------------|
G|---------------------------------------------------------------------------|
D|---------------------------------------------------------------------------|
A|---------------------------------------------------------------------------|
E|---------------------------------------------------------------------------|

e|-22-22-22-22---------------------------------------------------------------|
B|---------------------------------------------------------------------------|
G|---------------------------------------------------------------------------|
D|---------------------------------------------------------------------------|
A|---------------------------------------------------------------------------|
E|---------------------------------------------------------------------------|
    Solo 2

e|---------------------------------------------------------------------------|
B|---------------------------------------------------------------------------|
G|--14-14-14-14~--14-12p10--14-14-14-14~--12p10\9----10h12/14-12p10\9--------|
D|---------------------------------------------------------------------------|
A|---------------------------------------------------------------------------|
E|---------------------------------------------------------------------------|

e|---------------------------------------------------------------------------|
B|-----------------------------------------13-13-----13----13----13---15-----|
G|---10h12/14-12p10\9--9-10-10-12-12-14-14-------14-----14----14----14-------|
D|---------------------------------------------------------------------------|
A|---------------------------------------------------------------------------|
E|---------------------------------------------------------------------------|

e|---------------------------------------------------------------------------|
B|--15-15-15-15-15-15-15-15-15-15-15-15-15-15-15-15-15-15-15-15-15-15-15~----|
G|---------------------------------------------------------------------------|
D|---------------------------------------------------------------------------|
A|---------------------------------------------------------------------------|
E|---------------------------------------------------------------------------|

e|------------------------------------------------------------12h13p12-------|
B|-13--15-15-13h15p13-13----13--15-15-13h15p13-13-----13h15------------------|
G|---------------------------------------------------------------------------|
D|---------------------------------------------------------------------------|
A|---------------------------------------------------------------------------|
E|---------------------------------------------------------------------------|

e|---------12h13p12------------12h13p12-----------12h13h12-----15-15-15-15---|
B|-13h15--------------13h15---------------13h15------------------------------|
G|---------------------------------------------------------------------------|
D|---------------------------------------------------------------------------|
A|---------------------------------------------------------------------------|
E|---------------------------------------------------------------------------|

e|--13-12-15-15--13p12-15--15-15-15-15-13-12--15-15--13p12-15--13-12-15b15b--|
B|---------------------------------------------------------------------------|
G|---------------------------------------------------------------------------|
D|---------------------------------------------------------------------------|
A|---------------------------------------------------------------------------|
E|---------------------------------------------------------------------------|

e|-15p13--15b15b---13--12-15b15b--15p13--15b15b--20-20-20-20-18p17-15--15----|
B|--------------------------------------------------------------------18-17--|
G|---------------------------------------------------------------------------|
D|---------------------------------------------------------------------------|
A|---------------------------------------------------------------------------|
E|---------------------------------------------------------------------------|

e|----------15-17-----------15-17-----------15-17-----------15-17b-br--------|
B|-15-17-18-------15-17-18---------15-17-18-------15-17-18-------------------|
G|---------------------------------------------------------------------------|
D|---------------------------------------------------------------------------|
A|---------------------------------------------------------------------------|
E|---------------------------------------------------------------------------|

e|----------15-17-----------15-17-----------15-17-----------15-17b-br--------|
B|-15-17-18-------15-17-18---------15-17-18-------15-17-18-------------------|
G|---------------------------------------------------------------------------|
D|---------------------------------------------------------------------------|
A|---------------------------------------------------------------------------|
E|---------------------------------------------------------------------------|

e|--15h20-20b-20--15-------15h20-20b-20-15---------15h20---20b20-15----------|
B|---------------------20--------------------20----------------------20------|
G|---------------------------------------------------------------------------|
D|---------------------------------------------------------------------------|
A|---------------------------------------------------------------------------|
E|---------------------------------------------------------------------------|
                                                (24 can also be 22b)
e|--20b20-15------20b20-15-----20b20-15-----20b20-15-----24-24-24-24-24-24---|
B|-----------20------------20-----------20-----------20----------------------|
G|---------------------------------------------------------------------------|
D|---------------------------------------------------------------------------|
A|---------------------------------------------------------------------------|
E|---------------------------------------------------------------------------|

e|-24-24-24-22--20h22-24-24-24-24-24-24-24-24-24-22--20h22-------------------|
B|---------------------------------------------------------------------------|
G|---------------------------------------------------------------------------|
D|---------------------------------------------------------------------------|
A|---------------------------------------------------------------------------|
E|---------------------------------------------------------------------------|

e|-22-22-20-20-20-18-18-18-17-17-------------------------------------17------|
B|--------------------------------20-18-17-------17-18-20---17-18-20---------|
G|---------------------------------------------------------------------------|
D|---------------------------------------------------------------------------|
A|---------------------------------------------------------------------------|
E|---------------------------------------------------------------------------|

e|------------17-20-20b20b20b20b---------------------------------------------|
B|--17-18-20-----------------------------------------------------------------|
G|---------------------------------------------------------------------------|
D|---------------------------------------------------------------------------|
A|---------------------------------------------------------------------------|
E|---------------------------------------------------------------------------|
************************************

| /   slide up
| \   slide down
| h   hammer-on
| p   pull-off
| ~   vibrato
| +   harmonic
| x   Mute note
| b   Bend
| pb  Pre-bend
| br  Bend release
| pbr Pre-bend release
| brb Bend release bend

************************************
comments
We did not receive enough feedback on this tab! Please rate:
print report bad tab
1 2 3 4 5
I want to post or [tab]
guest
You may want to rate the tab now too:
select rating
Please do not post tabs as comments. Select "correction" instead!