Oops, an error
Loading. Please wait.

All Fever To Tell Tab

5,761 views 12 this week
2 commentsread comments
1 2 3 4 5
excellent!
x 2
add to favorites launch autoscroll
font size
0
reset
Autoscroll
+/-
esc
set tempo
stop
Contributor
WARNING: You are trying to view
                                    content from Ultimate-Guitar.com
                                    in an unauthorized application,
                                    which is prohibited.

                                    Please use an official Ultimate
                                    Guitar Tabs application for iPhone,
                                    iPad or Android to access legitimate
                                    chords, guitar, bass, and drum tabs
                                    from Ultimate-Guitar.com database.

                                    Type "ultimate guitar tabs" in Apple
                                    App Store's or Android Market's
                                    search to find the application.
***********************************************************************
**************************Rich*****************************************
Standard Tuning
EADGBE


Intro:
------------------------------14-14---------17-17----20-20---------------|
---------15-15-----------------------15-15-------------------------------|
----------------16-16----------------------------------------------------| x8
--14-14----------------17-17---------------------------------------------|
-------------------------------------------------------------------------|
-------------------------------------------------------------------------|


verse Two guitars:
------------------------------14-14---------17-17----20-20---------------|
---------15-15-----------------------15-15-------------------------------|
----------------16-16----------------------------------------------------|
--14-14----------------17-17---------------------------------------------|
-------------------------------------------------------------------------|
-------------------------------------------------------------------------|

-------------------------------------------------------------------------|
-------------------------------------------------------------------------|
--*0<=harmonic-----------------------------------------------------------|
-------------------------------------------------------------------------|
--------------------------------------------------------------5-5--------|
----------------0-0---7-7---3-3---2-2-------0-0---7-7---3-3--------------|

chorus:
--------------------------------------------------------------------------|
--------------------------------------------------------------------------|
--------------------------------------------------------------------------|
--9------------12--------------------------------------------9------------|
--7-x16--------10-x16-------9-----------7-----------12-------7-x8---5-5---|
----------------------------7-x8--------5-x4--------10-x4-----------3-3---|

---------------------------------------------------------------------------------------|
---------------------------------------------------------------------------------------|
---------------------------------------------------------------------------------------|
--9------------12----------------------------------------------------------9-----------|
--7-x16--------10-x7----------------------9-----------7-----------12-------7-x8---5-5--|
----------------------8-slide-to\-0-------7-x8--------5-x4--------10-x4-----------3-3--|

verse Two guitars
chorus

First Solo
---------------10-------12-----------------------------------------------|
---------------10-x12---12-----OR--15-----17-----------------------------|
-----------------------------------14-X12-16-----------------------------|
-------------------------------------------------------------------------|
-------------------------------------------------------------------------|
-------------------------------------------------------------------------|

Second Solo
-------------22-23-24-24-24-24-------------------------------------------------------|
-------------22-23-24-----------and--------------------------------------------------|
-Mute--------22-23-24-----------pick---with-a-bunch-of-delay-------------------------|
-with--------22-23-24-----------side-------------------------------------------------|
-left-hand---22-23-24----------------------------------------------------------------|
-over-----=>-22-23-24----------------------------------------------------------------|

------------------------------14-14---------17-17----20-20---------------|
---------15-15-----------------------15-15-------------------------------|
----------------16-16----------------------------------------------------|
--14-14----------------17-17---------------------------------------------|
-------------------------------------------------------------------------|
-------------------------------------------------------------------------|

-------------------------------------------------------------------------|
--19-19-19-19-19-19-19-19-20-20-20-20-20-20-20-20------------------------|
----------------------------------------------------x2-times-------------|
-------------------------------------------------------------------------|
-------------------------------------------------------------------------|
-------------------------------------------------------------------------|


--19-19---------17-17-----------------||------------19-19--17-17--------------||
---------20-20--------19-19-----------||------20-20-------------19-19---------||
--------------------------------------||--------------------------------------||
------------------------------x4-times||------------------------------x4-times||
--------------------------------------||--------------------------------------||
--------------------------------------||--------------------------------------||

***********************************************************************
***********DATE WITH THE NIGHT*****************************************
Standard Tuning
EADGBE

e-----------------------------------||---------------------------------|
B-----------------------------------||---------------------------------|
G-----------------------------------||---------------------------------|
D------------------------------ x5--||---------------------------------|
A-----------------------------------||---------------------------------|
E----0-0-0-0-*6-<=Harmonic----------||--0-0-0-0-*6-<=Harmonic---0-0-0--|


e--------------------------------||---------------------------------------------|
B--------------------------------||---------------------------------------------|
G--------------------------------||---------------------------------------------|
D--------------------------------||---------------------------------------------|
A--------------------------------||--7-7-7-7--5-5-5-5---------------------------|
E----0-0--15-17---0-0--10-12-----||--5-5-5-5--3-3-3-3---------------------------|

slide part
e--------------------------------------------------------------------------|
B--------------------------------------------------------------------------|
G--------------------------------------------------------------------------|
D--------------------------------------------------------------------------|
A--------------------------------------------------------------------------|
E------1\2\3\4\5\6\7\8\9\10\11\12\13\14\15\16\17---------------------------|

SOLO
e--3\4\5\6\7\8\9\10\11\12\13\14\15\16\17\18--------------------------------|
B--3\4\5\6\7\8\9\10\11\12\13\14\15\16\17\18--------------------------------|
G--3\4\5\6\7\8\9\10\11\12\13\14\15\16\17\18--------------------------------|
D--------------------------------------------------------------------------|
A--------------------------------------------------------------------------|
E--------------------------------------------------------------------------|

P.M- - - - - - - - - - -
e-------------------------||------------------------------------------------------------------|
B-------------------------||--3---X8(FAST)--SLIDE-TO-17-17-17-17-17\16\15\14\13\12\11\10\9\8--|
G-------------------------||------------------------------------------------------------------|
D-------------------------||------------------------------------------------------------------|
A-------------------------||------------------------------------------------------------------|
E-0-0--15-17---0-0--10-12-||------------------------------------------------------------------|

END
e--------------------------------||---------------------------------------------|
B--------------------------------||---------------------------------------------|
G--------------------------------||---------------------------------------------|
D--------------------------------||---------------------------------------------|
A--------------------------------||--7-7-7-7--5-5-5-5---------------------------|
E----0-0--15-17---0-0--10-12-----||--5-5-5-5--3-3-3-3---------------------------|

e--------------------------------||---------------------------------------------|
B--------------------------------||---------------------------------------------|
G--------------------------------||---------------------------------------------|
D--------------------------------||---------------------------------------------|
A--------------------------------||--7-7-7-7--5-5-5-5--7-7-7-7--12-12-12-12-14--|
E----0-0--15-17---0-0--10-12-----||--5-5-5-5--3-3-3-3--5-5-5-5--10-10-10-10-12--|

***********************************MAN*********************************
***********************************************************************
Standard Tuning
EADGBE

e--------------------------------------------------------------------------|
B------8-------------------------------------------------------------------|
G------10/12--7-9/---------------------------------------------------------|
D--------------------------------------------------------------------------|
A----------------------5-5-5-5-5-5-5-5-5-5-5-17-17-17----------------------|
E--0-------------------3-3-3-3-3-3-3-3-3-3-3-15-15-15----------------------|
   PM
e-------------------------------------------------------------------------|
B------8-------------------8--------------8-------------------------------|
G------10/12--7--9/--------10/12---------10/12--7--9/---------------------|
D-------------------------------------------------------------------------|
A---------------------------------5-7-------------------------------------|
E--0---------------------0--------3-5---0---------------------------------|
   PM			PM		PM
e--------------------------------------------------------------------------|
B------8-------------------------------------------------------------------|
G------10/12--7-9/---------------------------------------------------------|
D--------------------------------------------------------------------------|
A----------------------5-5-5-5-5-5-5-5-5-5-5-17-17-17----------------------|
E--0-------------------3-3-3-3-3-3-3-3-3-3-3-15-15-15----------------------|

CHORUS
e-----------------------||
B------(3)/9------------||
G------(3)/9------------||
D------(3)/9-----7------||
A------(5)/7--5--5------||
E---0---------3---------||

SOLO
e---------------------------------------------------------------------------|
B------8-------------------8--------------8----------------8----------------|
G------10/12--7--9/--------10/12---------10/12--7--9/-----10/12-9/5\9/5\9/5-|
D---------------------------------------------------------------------------|
A---------------------------------5-7---------------------------------------|
E--0---------------------0--------3-5---0----------------0------------------|
   PM			PM		PM		PM

e-------------------------------------------------------------------------------|
B------8-------------------8--------------8----------------8--------------------|
G------10/12--7--9/--------10/12---------10/12--7--9/-----10/12-----------------|
D-------------------------------------------------------------------------------|
A--------------------------------XX-----------------------------XXXX------------|
E--0---------------------0-------XX----0----------------0-------XXXX------------|
   PM			PM		PM		PM
								"1,2,3,GO"


***********************************************************************
****************************TICK***************************************
Standard Tuning
EADGBE


e------------------*22-22-22-22-22-22-<=HARMONIC-VERY-FAST-----------------|
B--------------------------------------------------------------------------|
G--------------------------------------------------------------------------|
D--------------------------------------------------------------------------|
A-------7-7--9-9-----------------------------------------------------------|
E-------5-5--7-7-----------------------------------------------------------|

e-------------------------------------||*22-22-22-22-22-22--|=HARMONIC-VERY-FAST
B-------------------------------------||--------------------|
G-------------------------------------||--------------------|
D-------7-7-9-9\(5)-------------------||--------------------|
A-------5-5-7-7\(3)----7-7-9-9\(5)--X4||--------------------|
E----------------------5-5-7-7\(3)----||--------------------|

e-----------------------------------||------------------||-------|
B-------------------------------x4--||------------------||-------|
G-----------------------------------||------------------||-------|
D-------7-7-9-9\(5)-----------------||------------------||-------|
A-------5-5-7-7\(3)----7-7-5-5------||-------5-5-9-9--X4||-7-7-7-|
E----------------------5-5-3-3------||-------5-5-7-7----||-5-5-5-|


Solo Part
0:43
"You make me wanna loose"

e--------------------------------------------------------------------------|
B--------------------------------------------------------------------------|
G--------------------------------------------------------------------------|
D--------------------------------------------------------------------------|
A--------------------------------------------------------------------------|
E-x------x---------x-----x------------------x------x-----------x-x-x-x-----|

0:49
e----------------||-----------------------------|
B----------------||-----------------------------|
G----------------||-----------------------------|
D----------------||-----------------------------|
A--X---X----x-9\-||---x---x--x-9-9-9-9--11-11---|
E--X---X----x-7\-||---x---x--x-7-7-7-7--9--9----|

0:56
e--7\6\5---------------------||-7\6\5--------------------|
B-------------------------x3-||-------777777-------------|
G----------------------------||-------888888-------------|
D----------------------------||-------999999-------------|
A-------------------7-9-9----||-------999999-------------|
E-------------------5-7-7----||--------------------------|


"You make me wanna loose"
1:09
e--------------------------------------------------------------------------|
B--------------------------------------------------------------------------|
G--------------------------------------------------------------------------|
D--------------------------------------------------------------------------|
A--------------------------------------------------------------------------|
E-x------x---------x-----x------------------x------x-----------x-x-x-x-----|

e----------------||------------------------|
B----------------||------------------------|
G----------------||------------------------|
D----------------||------------------------|
A--X---X----x-9\-||---x---x--x-9-9-9-9-----|
E--X---X----x-7\-||---x---x--x-7-7-7-7-----|


e-------------------------------------||
B-------------------------------------||
G-------------------------------------||
D-------7-7-9-9\(5)-------------------||
A-------5-5-7-7\(3)----7-7-9-9\(5)--X4||
E----------------------5-5-7-7\(3)----||


e----*22-22-22-22-22-22-22-22-22-22-<=HARMONIC-VERY-FAST-------------------|
B--------------------------------------------------------------------------|
G--------------------------------------------------------------------------|
D---------"tick tick tick tick tick...."-----------------------------------|
A------------------------------------------------------------9\------------|
E------------------------------------------------------------7\------------|

***********************************************************************
************************BLACK TOUNGE***********************************
Standard Tuning
EADGBE

Intro:
------------------|
------------------|
------------------|
------------------|
-6-6-6-6-6-6-6\---|
-4-4-4-4-4-4-4----| x4


VERSE
-------------------------------------|
-------------------------------------|
-------------------------------------|
-6-6-6-6-6-6-6---4-4-4-4-4-4-4-------| X4
-6-6-6-6-6-6-6---4-4-4-4-4-4-4-------|
-4-4-4-4-4-4-4---2-2-2-2-2-2-2-------|

CHORUS

-----------------------------------------------|
-----------------------------------------------|
-----------------------------------------------|
-----------------------------------------------|   x2
-----------------------------------------------|
-0-4-4-4-4-4-4-4-4-4-4-4-2-2-2-2-2-2-2-2-2-2-2-|


----------------------------------------------------------------------------------|
-------10\12--------------------------------10\12---------------------------------|
--------------------------------------------------------7\8-----------------------|
-6-------------6-------6------4---------6---------4----------6------4-------------|
-6-x10---------6--x10--6-x10--4-x10-----6--x10----4-x10------6-x10--4-x10---------|
-4-------------4-------4------2---------4---------2----------4------2-------2/7\4-|

-----------------------------------------------|
-----------------------------------------------|
-----------------------------------------------|
-----------------------------------------------|   x2
-----------------------------------------------|
---4-4-4-4-4-4-4-4-4-4-4-2-2-2-2-2-2-2-2-2-2-2-|

"boy just a stupid bitch and girl just a no good dick"
1:29
-------------------------------------------------------------------------|
-------------------------------------------------------------------------|
-------------------------------------------------------------------------|
-------------------------------------------------------------------------|	X2
-------------------------------------------------------------------------|
-11-11-11-11-11-11-11-9-9-9-9-9-9-9-9-9--4-4-4-4-4-4-4-4-4-4-4-4-4-4-4-4-|

-------------------------------------------|
-------------------------------------------|
-------------------------------------------|
-------------------------------------------|
-------------------------------------------|
-11-11-11-11-11-11-11-14-14-14-14-14-14-14-|


-----------------------------------------------------------|
-------10\12--------------------10\12----------------------|
-------------------7\8-------------------------------------|
-6-----------6------------6-------------6\-----------------|
-6-X10-------6-X10--------6-X10---------6\-X10-------------|
-4-----------4------------4-------------4\-----------------|

END:
"boy just a stupid bitch and girl just a no good dick"
2:36
-------------------------------------------------------------------------|
-------------------------------------------------------------------------|
-------------------------------------------------------------------------|
-------------------------------------------------------------------------|  X2
-------------------------------------------------------------------------|
-11-11-11-11-11-11-11-9-9-9-9-9-9-9-9-9--4-4-4-4-4-4-4-4-4-4-4-4-4-4-4-4-|

-----------------------------------------------|
-----------------------------------------------|
-----------------------------------------------|
-----------------------------------------------|
-----------------------------------------------|
-11-11-11-11-11-11-11-14-14-14-14-14-14-14--4\-|


****************************************************************************************
***********************PIN**************************************************************


-------------------------------------------------|
-12-12-12-12-12-12-12-12-12-12-12-12-12-12-12-12-|
-------------------------------------------------|
-12-12-12-12-12-12-12-12-12-12-12-12-12-12-12-12-|
-------------------------------------------------|
-------------------------------------------------|

----------------------------------------|
--12-12-12-12-12\-7-7-7-5-5-5-5-5-------|
------------------------4-4-4-4-4-5-5-4-|
--12-12-12-12-12\-7-7-7-----------5-5-5-|
----------------------------------------|
----------------------------------------|

-----------------------------------------|
-12-12-12-12-12\-7-7-7-5-5-5-5-5\-8-8-8--|
-----------------------4-4-4-4-4\-7-7-7--|
-12-12-12-12-12\-7-7-7-------------------|
-----------------------------------------|
-----------------------------------------|

--------------------------------|-----------------|
--------------------------------|-----------------|
--------------------------------|-----------------|
--------------------------------|-5-5-5-5-5-5-5-5-|  x3
-10-12--10-12---10-12---10-12---|-5-5-5-5-5-5-5-5-|
-10-12--10-12---10-12---10-12---|-3-3-3-3-3-3-3-3-|

--------------------------------|-----------------------|
--------------------------------|-----------------------|
--------------------------------|-----------------------|
--------------------------------|-5-5-5-5-12-12-12-12---|
-10-12---10-12---10-12---12\----|-5-5-5-5-12-12-12-12---|
-10-12---10-12---10-12---10\----|-3-3-3-3-10-10-10-10---|

-----------|-----------|----------------|-----------------------------------|
-/17-------|-17--------|-16-------------|-15-------15-------15--------------|
-----------|-16--------|-15-------------|-14b------14b------14b-------------|
-----------|-17--------|-16-------------|-----------------------------------|
-----------|-----------|----------------|-----------------------------------|
-----------|-----------|----------------|----------------------------12\----|

-------------------------------------------------|
-------------------------------------17-17-17-17-|
-------------------------16-16-16-16-------------|
-14-14-14-14-14-14-14-14-------------------------|
-------------------------------------------------|
-------------------------------------------------|

-------------------------------------------------|
-17-17-17-17-17-17-17-17-17-17-17-17-17-17-17-17-|
-------------------------------------------------|
-14-14-14-14-14-14-14-14-14-14-14-14-14-14-14-14-|
-------------------------------------------------|
-------------------------------------------------|

***********************************************************************
************************COLD LIGHT***********************************

Standard Tuning

|-------------|------------|----------------------|
|-------------|------------|----------------------|
|-------------|------9--9--|---5-5-5-5-5-5-5-5----|
|-------7--7--|------9--9--|---5-5-5-5-5-5-5-5----|
|-------7--7--|------7--7--|---3-3-3-3-3-3-3-3----|
|-------5--5--|------------|----------------------|

|-------------|------------|----------------------|-----------------|-------------|
|-------------|------------|----------------------|-----------------|-------------|
|-------------|------9--9--|---5-5-5-5-5-5-5-5----|-7-7-7-7-7-7-7-7-|-7--7--7--7--|
|-------7--7--|------9--9--|---5-5-5-5-5-5-5-5----|-7-7-7-7-7-7-7-7-|-7--7--7--7--|
|-------7--7--|------7--7--|---3-3-3-3-3-3-3-3----|-5-5-5-5-5-5-5-5-|-5--5--5--5--|
|-------5--5--|------------|----------------------|-----------------|-------------|


|------------------------------------------|
|------------------------------------------|
|------------------------------------------|
|------------------------------------------|
|------------------------------------------|
|-12-0-12-0-12-0----0--12-0-12-0-12-0----0-|


|---------------------|-----------------------3\18------|
|---------------------|-----------------------3\18------|
|---------------------|-----------------------3\18------|
|---------------------|---------------------------------|
|---------------------|---------------------------------|
|-12-0-12-0-12-0----0-|-12-0-10-0-7-0-------------------|

|---------------------|---------------------|---------------------|
|---------------------|---------------------|---------------------|
|---------------------|---------------------|---------------------|
|---------------------|---------------------|---------------------|
|---------------------|---------------------|---------------------|
|-12-0-12-0-12-0----0-|-12-0-12-0-12-0----0-|-12-0-12-0-12-0----0-|

|---------------------|---------------------|
|---------------------|---------------------|
|---------------------|---------------------|
|---------------------|---------------------|
|---------------------|---------------------|
|-12-0-12-0-12-0----0-|-13-0-13-0-13-0----0-|

|---------------------|----------------------------|
|---------------------|----------------------------|
|---------------------|-14--14----14--14b15---(14)-|
|---------------------|----------------------------|
|---------------------|----------------------------|
|-15-0-15-0-15-0----0-|----------------------------|


"hey"
1:13
|----------------------------------|
|----------------------------------|
|----------------------------------|
|----------------------------------|
|--14----14----14----14------------|
|--12--0-12--0-12--0-12------------|

|-------------|------------|
|-------------|------------|
|-------------|------9--9--|
|-------7--7--|------9--9--|
|-------7--7--|------7--7--|
|-------5--5--|------------|


|-----------------|-----------------|-----------------|----------------|------|------|
|-----------------|-----------------|-----------------|----------------|------|------|
|-5-5-5-5-5-5-5-5-|-5-5-5-5-5-5-5-5-|-7-7-7-7-7-7-7-7-|-7-7-7-7-7-7-7--|-x2---|------|
|-5-5-5-5-5-5-5-5-|-5-5-5-5-5-5-5-5-|-7-7-7-7-7-7-7-7-|-7-7-7-7-7-7-7--|------|------|
|-3-3-3-3-3-3-3-3-|-3-3-3-3-3-3-3-3-|-5-5-5-5-5-5-5-5-|-5-5-5-5-5-5-5--|------|------|
|-----------------|-----------------|-----------------|----------------|------|--12b-|


-----------------------------------------------------------------------------------------|
-----------------------------------------------------------------------------------------|
-----------------------------------------------------------------------------------------|
-----------------------------------------------------------------------------------x2----|
-----------------------------------------------------------------------------------------|
--12-0-12-0-12-0----0--12-0-12-0-12-0----0--12-0-12-0-12-0-----0-12-0-12/20--------------|


|------------------------|---------------------|
|------------------------|---------------------|
|------------------------|---------------------|
|---------------------x4-|---------------------|
|------------------------|---------------------|
|-12-0-12-0-12-0----0----|-13-0-13-0-13-0----0-|


|---------------------|----------------------------|---------*|
|---------------------|----------------------------|---------*|
|---------------------|-14--14----14--14b15---(14)-|-(14)----*|
|---------------------|----------------------------|---------*|
|---------------------|----------------------------|---------*|
|-15-0-15-0-15-0----0-|----------------------------|---------*|

**********************************************************************************************************
****************NO NO NO*********************************************************************************


e--------------------------------------------------------------------------|
B--------------------------------------------------------------------------|
G--------------------------------------------------------------------------|
D---77--777--777--777--999-999-999-999-------------------------------------|
A---99--999--999--999--777-777-777-777-------------------------------------|
E--------------------------------------------------------------------------|

e--------------------------------------------------------------------------|
B--------------------------------------------------------------------------|
G--*0-<=Harmonic-----------------------------------------------------------|
D--------------------------7-----------------------------------------------|
A-----------------7--2--7--5--99x999x999x999-----7777777777777---2-2-2-----|
E-----------------5--0--5-----77x777x777x777-----5555555555555---0-0-0-----|

e--------------------------||----------------------||
B--------------------------||----------------------||
G--------------------------||-----0-<=Harmonic---x4||
D----------9-------9-7---x4||----------------------||
A-----9-9------9-9---------||-2-2------------------||
E---0-7-7----0-7-7---------||-0-0------------------||

e---------------------------------------------------------------------|
B---------------------------------------------------------------------|
G---------------------------------------------------------------------|
D---------------------------------------------------------------------| X3
A----------5-5-5-5----------5-5-5-5----------7-7-7-7---------7-7-7-7--|
E-7-7-7-7----------7-7-7-7----------5-5-5-5----------5-5-5-5----------|

e--------------------------------------------------------------------------|
B--------------------"(0)-AT--1:48,-USE-A-LOW-RESONANCE-DELAY"-------------|
G--------------------------------------------------------------------------|
D--------------------------------------------------------------------------|
A------------7-7-7-7-----------7-7-7-7----------5-5-5-5-5-5-5-5-5-5-5-5----|
E----5-5-5-5-----------5-5-5-5----------7-7-7-7----------------------------|

e---------------------------------------------------------------------|
B---------------------------------------------------------------------|
G---------------------------------------------------------------------|
D---------------------------------------------------------------------| X3
A----------5-5-5-5----------5-5-5-5----------7-7-7-7---------7-7-7-7--|
E-7-7-7-7----------7-7-7-7----------5-5-5-5----------5-5-5-5----------|

e---------------------------------------------------------------------------------------|
B---------------------------------------------------------------------------------------|
G---------------------------------------------------------------------------------------|
D---------------------------------------------------------------------------------------|
A-2-2-2-2-2-4-4-4-4-4--5-5-5-5-5-7-7-7-7-7-9-9-9-9-9-7-7-7-7-7-12-12-12-12-12-7-7-7-7-7-|
E-0-0-0-0-0-2-2-2-2-2--3-3-3-3-3-5-5-5-5-5-7-7-7-7-7-5-5-5-5-5-10-10-10-10-10-5-5-5-5-5-|

e----------------------------------------------------------------------------------|
B----------------------------------------------------------------------------------|
G----------------------------------------------------------------------------------|
D----------------------------------------------------------------------------------|
A--7-7-7-7-7-7-9-9-9-9-9-9-10-10-10-10-10-10-12-12-12-12-12-12---------------------|
E---------------------------------------------------------------7-7-7-7-7-7-7-7----|

e--------------------------------------------------------------------------|
B--------------------------------------------------------------------------|
G--------------------------------------------------------------------------|
D--------------------------------------------------------------------------|
A--------------------------------------------------------------------------|
E--5-5-5-5-5-5-10-10-10-10-10-10-17-17-17-17-17-17-------------------------|

e------------------------------------|
B------------------------------------|
G------------------------------------|
D----------9-------9-7---x4----------|
A-----9-9------9-9----------2-2-2----|
E---0-7-7----0-7-7----------0-0-0----|

e------------------------------------------------------------------------|
B------------------------------------------------------------------------|
G--------*0-<=Harmonic---------------------------------------------------|
D--------------------------7---------------------------------------------|
A-----------------7--2--7--5--99x999x999x999-----7777777777777---2-2-2---|
E-----------------5--0--5-----77x777x777x777-----5555555555555---0-0-0---|

***************************************************************************
*********************MAPS**************************************************

Intro:
e---10-10-10-10-10---|
B--------------------|
G--------------------|
D--------------------|
A--------------------|
E--------------------|


verse
e--------------------------------------------------------------------------|
B---12-12-12-12\8-8-8-8-/12-12-12-12-/15-15-15-15--------------------------|
G--------------------------------------------------------------------------|
D--------------------------------------------------------------------------|
A--------------------------------------------------------------------------|
E--------------------------------------------------------------------------|

e--------------------------------------------------------------------------|
B---12-12-12-12\8-8-8-8-/17-17-17-17/20-20-20-20---------------------------|
G--------------------------------------------------------------------------|
D--------------------------------------------------------------------------|
A--------------------------------------------------------------------------|
E--------------------------------------------------------------------------|

chorus:
e--19--19--19--19--19--19--17--17-15--15--15--15--15--12--14--15-----------|
B--------------------------------------------------------------------------|
G--------------------------------------------------------------------------|  x4
D--------------------------------------------------------------------------|
A--------------------------------------------------------------------------|
E--------------------------------------------------------------------------|
	Background guitar on chorus:
  e--------------------------------------------------------------------------|
  B--------------------------------------------------------------------------|
  G--------------------------------------------------------------------------|
  D--------------------------------------------------------------------------|
  A--------------------------------------------------------------------------|
  E---8-8-8-8-8-8-8-8-8-8-8-8-8-8-8-8----3-3-3-3-3-3-3-3-3-3-3-3-3-3-3-3-----|


  e-----------------------------------------------------------------------------------|
  B-----------------------------------------------------------------------------------|
  G-----------------------------------------------------------------------------------|
  D-----------------------------------------------------------------------------------|
  A-----------------------------------------------------------------------------------|
  E-12-12-12-12-12-12-12-12-12-12-12-12-12-12-12-12---3-3-3-3-3-3-3-3-3-3-3-3-3-3-3-3-|


  e----------------------------------------------------------------------|
  B----------------------------------------------------------------------|
  G----------------------------------------------------------------------|
  D----------------------------------------------------------------------|
  A----------------------------------------------------------------------|
  E--10-10-10-10-10-10-10-10-10-10-10-10-8-8-8-8-8-8-8-8-8-8-8-8-8-8-8-8-|

  e----------------------------------------------------------------------|
  B----------------------------------------------------------------------|
  G----------------------------------------------------------------------|
  D----------------------------------------------------------------------|
  A----------------------------------------------------------------------|
  E-10-10-10-10-10-10-10-10-10-10-10----3-3-3-3-3-3-3-3-3-3-3-3-3-3-3-3--|

Bridge 1:00

e-19-19-19-17-15-15-15-15-12-12-12----15-15-15-15--------------------------|
B----------------------------------15--------------------------------------|
G--------------------------------------------------------------------------|
D--------------------------------------------------------------------------|
A--------------------------------------------------------------------------|
E--------------------------------------------------------------------------|
Back to verse and chorus.

Bridge 1:57
e--------------------------------------------------------------------------|
B--------------------------------------------------------------------------|
G--------------------------------------------------------------------------|
D--------------------------------------------------------------------------|
A---/10-10-10-9-10-9\---------------/10-10-10-9-10-14----------------------|
E----------------------3-3-3-3-5-5---------------------3-3-3-3-5-5---------|

e--------------------------------------------------------------------------|
B--------------------------------------------------------------------------|
G--------------------------------------------------------------------------|
D--------------------------------------------------------------------------|
A--/10-10-10-9-10-9\----------------/10-10-10-9-10-14-\12-\10--------------|
E----------------------3-3-3-3-5-5-----------------------------------------|

e-----3-----3-----3-----3-------3-----3-----3-----3-------3-----3-----3-----3--|
B------------------------------------------------------------------------------|
G--0-----0-----0-----0---------------------------------------------------------|
D----------------------------2-----2-----0-----0-------------------------0-----|
A------------------------------------------------------------------------------|
E------------------------------------------------------3-----3-----3-----------|

e-----3-----3-----3-----3--|-----3-----3-----3-----3--|-----3-----3-----3-----3--|
B--------------------------|--------------------------|--------------------------|
G--0-----0-----0-----------|--0-----0-----0-----0-----|--------------------------|
D--------------------0-----|--------------------------|--2-----2-----0-----0-----|
A--------------------------|--------------------------|--------------------------|
E--------------------------|--------------------------|--------------------------|

e-----3-----3-----3-----3-------3-----3-----3-------|
B---------------------------------------------------|
G----------------------------0-----0-----0----------|
D--------------------0------------------------------|
A---------------------------------------------------|
E--3-----3-----3------------------------------------|

e--------------------------------------------------------------------------|
B--------------------------------------------------------------------------|
G--------------------------------------------------------------------------|
D--------------------------------------------------------------------------|
A---/10-10-10-9-10-9\---------------/10-10-10-9-10-14----------------------|
E----------------------3-3-3-3-5-5---------------------3-3-3-3-5-5---------|

								END:
e-------------------------------------------------------------|-------3-------|
B-------------------------------------------------------------|-------3-------|
G-------------------------------------------------------------|-------4-------|
D-------------------------------------------------------------|-------5-------|
A--/10-10-10-9-10-9\----------------/10-10-10-9-10-14-\12-\10-|-------5-------|
E----------------------3-3-3-3-5-5----------------------------|-------3-------|

*************************************************************************************************
********************************Y control*********************************************************
Watch Tuning Drop C

Intro Use delay
e-8-8-8-8---------12-12-12-12--|
B----------8-8-----------------|
G------------------------------|
D------------------------------|
A------------------------------|
C------------------------------|

Verse
e---------------------------------|
B---------------------------------|
G---------------------------------|
D---------------------------------|
A---------------------------------|
C-0-0-0-0-2-2-2-2-9-9-9-9-7-7-7-7-|

e---------|
B---------|
G---------|
D---------|
A---------|
C-5-5-9-9-|

e------------|
B------------|
G------------|
D-9b/11------|Use tremolo
A------------|
C------------|

Bridge

e--------------------------------------------------------------------|
B--------------------------------------------------------------------|
G--------------------------------------------------------------------|
D--------------------------------------------------------------------|
A--------------------------------------------------------------------|
C-0-0-0-0-2-2-2-2-5-5-5-5-6-6-6-6--0-0-0-0-2-2-2-2-4-4-4-4-5-5-12-12-|

e-8-8-8-8---------12-12-12-12--|
B----------8-8-----------------|
G------------------------------|
D------------------------------|
A------------------------------|
C------------------------------|

**************************************************************************************************
***************************Modern Romance*********************************************************


e--------------------------------------|------------------------------------|
B--------------------------------------|------------------------------------|
G--------------------------------------|------------------------------------|
D--7-7-7-7-7-7-7---6-------------6-----|------------------------------------|
A--7-7-7-7-7-7-7-7-7-7-7-7-7-7-7-7-----|-12-12-12-12-12-12-12-12-12-12------|
E----------------4-------------4-------|-10-10-10-10-10-10-10-10-10-10------|


Hidden track Poor Song:

e----x-----x----------x-------x--------x------x---------x-----x----------x-----x--------x------x-----|
B----x-----x----------x-------x--------x------x---------x-----x----------x-----x--------x------x-----|
G----x-----x----------x-------x--x2----x------x--x2-----x-----x---x2-----x-----x--x2----x------x--x2-|
D--5-x-5-5-x---x6--2--x--2-2--x------5-x--5-5-x-------2-x-2-2-x-------10-x--10-x------7-x--7-7-x-----|
A--5-x-5-5-x-------2--x--2-2--x------5-x--5-5-x-------2---2-2-x-------10-x--10-x------7-x--7-7-x-----|
E--3---3-3---------0-----0-0---------3----3-3---------0---0-0---------8-----8---------5----5-5-------|

e--------5-5-5-5-5-5-5-5-5-5-5-5-5-5-5-5-----------------------------------------------------------------|
B--------5-5-5-5-5-5-5-5-5-5-5-5-5-5-5-5-----------------------------------------------------------------|
G--------6-6-6-6-6-6-6-6-6-6-6-6-6-6-6-6-----------------------------------------------------------------|
D--/12---7-7-7-7-7-7-7-7-7-7-7-7-7-7-7-7-----------------------------------------------------------------|
A--/12---7-7-7-7-7-7-7-7-7-7-7-7-7-7-7-7-----------------------------------------------------------------|
E--/10---5-5-5-5-5-5-5-5-5-5-5-5-5-5-5-5-----------------------------------------------------------------|

e----x-----x----------x-------x--------x------x---------x-----x-----------8------8---------7-------7-----|
B----x-----x----------x-------x--------x------x---------x-----x-----------8------8---------7-------7-----|
G----x-----x----------x-------x--x2----x------x--x2-----x-----x---x2------8------8--x2-----7-------7--x2-|
D--5-x-5-5-x---x2--2--x--2-2--x------5-x--5-5-x-------2-x-2-2-x-------10-----10---------7-----7-7--------|
A--5-x-5-5-x-------2--x--2-2--x------5-x--5-5-x-------2---2-2-x-------10-----10---------7-----7-7--------|
E--3---3-3---------0-----0-0---------3----3-3---------0---0-0---------8------8----------5-----5-5--------|

e--------5-5-5-5-5-5-5-5-5-5-5-5-5-5-5-5--------5---5-5-5-5-5-5-5-5--------------------------------------|
B--------5-5-5-5-5-5-5-5-5-5-5-5-5-5-5-5--------5---5-5-5-5-5-5-5-5--------------------------------------|
G--------6-6-6-6-6-6-6-6-6-6-6-6-6-6-6-6-----6--6---6-6-6-6-6-6-6-6--------------------------------------|
D--/12---7-7-7-7-7-7-7-7-7-7-7-7-7-7-7-7-----7--7---7-7-7-7-7-7-7-7--------------------------------------|
A--/12---7-7-7-7-7-7-7-7-7-7-7-7-7-7-7-7-----7------7-7-7-7-7-7-7-7--------------------------------------|
E--/10---5-5-5-5-5-5-5-5-5-5-5-5-5-5-5-5-----5------5-5-5-5-5-5-5-5--------------------------------------|

ALL THIS TABS MADE BY ARMANDO BALDENEGRO
DEDICATED TO NATALIE
ANY SUGGESTION gothic_photo@hotmail.com
YEAH YEAH YEAHS FAN
Karen O hope to meet one day.
comments
We did not receive enough feedback on this tab! Please rate:
1 2 3 4 5
2 comments total.
0 reply
LoveIsHell wrote on March 15 2007, 12:45 pm

Nice tab though the last note on the intro to Rich should be 20 not 21

0 reply
mucky wrote on July 11 2007, 07:23 am

very good but i think y controls intro goes

e-8-8-8-8---------12-12-12-12--|
B----------8-8-----------------|
G------------------------------|
D------------------------------|
A------------------------------|
C------------------------------|
but thats just my opinion

I want to post or [tab]
guest
You may want to rate the tab now too:
select rating
Please do not post tabs as comments. Select "correction" instead!