Oops, an error
Loading. Please wait.

A Vicious Kind Tab

1,324 views 21 this week
no commentswrite comment
1 2 3 4 5
excellent!
x 3
add to favorites launch autoscroll
font size
0
reset
Autoscroll
+/-
esc
set tempo
stop
Contributor
Tuning
D A D G B E
WARNING: You are trying to view
                                    content from Ultimate-Guitar.com
                                    in an unauthorized application,
                                    which is prohibited.

                                    Please use an official Ultimate
                                    Guitar Tabs application for iPhone,
                                    iPad or Android to access legitimate
                                    chords, guitar, bass, and drum tabs
                                    from Ultimate-Guitar.com database.

                                    Type "ultimate guitar tabs" in Apple
                                    App Store's or Android Market's
                                    search to find the application.
Tuning - Drop D.

Intro Gtr. 1: (Ryan Mendez)

(I'va added the violin solo, it's not really perfect but I thought I'd put it in nevertheless)


e|-------------------------------------------------------------------------------------|
B|-------------------------------------------------------------------------------------|
G|--12 12 12 12-4-4-4-11-11-11-11-11-7-7-7-7-------------------------------------------|
D|--x-x-x-x-x--x-x-x--x--x--x--x--x--x--x-x--------------------------------------------|
A|--10 10 10 10-2-2-2-9--9--9--9--9--5-5-5-5-------------------------------------------|
E|-------------------------------------------------------------------------------------|

e|-------------------------------------------------------------------------------------|
B|-------------------------------------------------------------------------------------|
G|--12 12 12 12-4-4-4-11-11-11-11-11-7-7-7-7-------------------------------------------|
D|--x-x-x-x-x--x-x-x--x--x--x--x--x--x--x-x--------------------------------------------|
A|--10 10 10 10-2-2-2-9--9--9--9--9--5-5-5-5-------------------------------------------|
E|-------------------------------------------------------------------------------------|

e|----------------------------------------------------------------------------------|
B|----------------------------------------------------------------------------------|
G|--12 12 12 12-4-4-4/-9-9-9-9-9-11/7-7-7-------------------------------------------|
D|--x--x--x--x--x-x-x--x-x-x-x-x-x--x-x-x-------------------------------------------|
A|--10 10 10 10-2-2-2/-7-7-7-7-7-11/5-5-5-------------------------------------------|
E|----------------------------------------------------------------------------------|

e|-------------------------------------------------------------------------------------|
B|-------------------------------------------------------------------------------------|
G|--12 12 12 12-4-4-4-11-11-11-11-11-7-7-7-7-------------------------------------------|
D|--x-x-x-x-x--x-x-x--x--x--x--x--x--x--x-x--------------------------------------------|
A|--10 10 10 10-2-2-2-9--9--9--9--9--5-5-5-5-------------------------------------------|
E|-------------------------------------------------------------------------------------|

e|----------------------------------------------------------------------------------|
B|----------------------------------------------------------------------------------|
G|--12 12 12 12-4-4-4/-9-9-9-9-9-11/7-7-7-------------------------------------------|
D|--x--x--x--x--x-x-x--x-x-x-x-x-x--x-x-x-------------------------------------------|
A|--10 10 10 10-2-2-2/-7-7-7-7-7-11/5-5-5-------------------------------------------|
E|----------------------------------------------------------------------------------|

Verse 1: 'Let me say this first...' (Let each note ring)

e|--3-------------5---------------------------------------------------|
B|--3------8------8---------------------------------------------------|
G|--5------7------7---------------------------------------------------|
D|--5-----------------------------------------------------------------|
A|--------------------------------------------------------------------|
E|--------------------------------------------------------------------|

'My gloves came off...'

e|--3----------------------------------------------------------------|
B|--3-----8----------------------------------------------------------|
G|--5-----7----------------------------------------------------------|
D|--5----------------------------------------------------------------|
A|-------------------------------------------------------------------|
E|-------------------------------------------------------------------|

'On and on and on!'

e|---------------------------------------------------------------------------------|
B|---------------------------------------------------------------------------------|
G|---------------------------------------------------------------------------------|
D|---55555555-55555555-------------------------------------------------------------|
A|---55555555-22222222-------------------------------------------------------------|
E|---55555555----------------------------------------------------------------------|

'You can tune me out...'

e|---3-----------------5----------------------------------------------|
B|---3--------8--------8----------------------------------------------|
G|---5--------7--------7----------------------------------------------|
D|---5----------------------------------------------------------------|
A|--------------------------------------------------------------------|
E|--------------------------------------------------------------------|

'But you will not...'

e|---3---------------------------------------------------------------|
B|---3------8--------------------------------------------------------|
G|---5------7--------------------------------------------------------|
D|---5---------------------------------------------------------------|
A|-------------------------------------------------------------------|
E|-------------------------------------------------------------------|

'On and on and on!'

e|---------------------------------------------------------------------------------|
B|---------------------------------------------------------------------------------|
G|---------------------------------------------------------------------------------|
D|---55555555-55555555-------------------------------------------------------------|
A|---55555555-22222222-------------------------------------------------------------|
E|---55555555----------------------------------------------------------------------|

Pre-Chorus: (Palm mute)
'For a while...'

e|------------------------------------------------------------------------------------|
B|------------------------------------------------------------------------------------|
G|---9999999-777777777-55555555555-11-11-11-11----------------------------------------|
D|----------------------------------x--x--x--x----------------------------------------|
A|----------------------------------9--9--9--9----------------------------------------|
E|------------------------------------------------------------------------------------|

'But the beat...'

e|------------------------------------------------------------------------------------|
B|------------------------------------------------------------------------------------|
G|---9999999-777777777-555555555555555------------------------------------------------|
D|------------------------------------------------------------------------------------|
A|------------------------------------------------------------------------------------|
E|------------------------------------------------------------------------------------|

Chorus.
'I want you to know...'

e|-------------------------------------------------------------------------------------|
B|-------------------------------------------------------------------------------------|
G|--12 12 12 12-4-4-4- 11-11-11-11-11-11-11-11-11--------------------------------------|
D|--x-x-x-x--x--x-x-x--x--x--x--x--x--x--x--x--x---------------------------------------|
A|--10 10 10 10-2-2-2--9--9--9--9--9--9--9--9--9---------------------------------------|
E|-------------------------------------------------------------------------------------|

e|----------------------------------------------------------------------------------|
B|----------------------------------------------------------------------------------|
G|--12 12 12 12-4-4-4- 9-9-9-9-11-11-11-11-11---------------------------------------|
D|--x-x-x-x--x--x-x-x--x--x--x--x--x--x--x--x---------------------------------------|
A|--10 10 10 10-2-2-2--7-7-7-7--9--9--9--9--9---------------------------------------|
E|----------------------------------------------------------------------------------|

e|-------------------------------------------------------------------------------------|
B|-------------------------------------------------------------------------------------|
G|--12 12 12 12-4-4-4- 11-11-11-11-11-11-11-11-11--------------------------------------|
D|--x-x-x-x--x--x-x-x--x--x--x--x--x--x--x--x--x---------------------------------------|
A|--10 10 10 10-2-2-2--9--9--9--9--9--9--9--9--9---------------------------------------|
E|-------------------------------------------------------------------------------------|

e|----------------------------------------------------------------------------------|
B|----------------------------------------------------------------------------------|
G|--12 12 12 12-4-4-4/-9-9-9-9-9-11/7-7-7-------------------------------------------|
D|--x--x--x--x--x-x-x--x-x-x-x-x-x--x-x-x-------------------------------------------|
A|--10 10 10 10-2-2-2/-7-7-7-7-7-11/5-5-5-------------------------------------------|
E|----------------------------------------------------------------------------------|

'All I ever wanted...' *This part is very faint but if you listen really closely it can be heard.

e|---------------------------------------------------------------------------------|
B|---------------------------------------------------------------------------------|
G|-15-15-15-15-15-15-15-15-15-15-15-15-15-15-15-15-15-15--14-14-14-14-14-14-14-14--|
D|-x--x--x--x--x--x--x--x--x--x--x--x--x--x--x--x--x--x---15-15-15-15-15-15-15-15--|
A|-13-13-13-13-13-13-13-13-13-13-13-13-13-13-13-13-13-13--13-13-13-13-13-13-13-13--|
E|---------------------------------------------------------------------------------|


e|--------------------------------------------------------------------------------|
B|--------------------------------------------------------------------------------|
G|---11-11-11-11-11--14-14-14-----------------------------------------------------|
D|---12-12-12-12-12---x--x--x-----------------------------------------------------|
A|---10-10-10-10-10--12-12-12-----------------------------------------------------|
E|--------------------------------------------------------------------------------|

'I thought we were...'

e|---------------------------------------------------------------------------------|
B|---------------------------------------------------------------------------------|
G|-15-15-15-15-15-15-15-15-15-15-15-15-15-15-15-15-15-15--14-14-14-14-14-14-14-14--|
D|-x--x--x--x--x--x--x--x--x--x--x--x--x--x--x--x--x--x---15-15-15-15-15-15-15-15--|
A|-13-13-13-13-13-13-13-13-13-13-13-13-13-13-13-13-13-13--13-13-13-13-13-13-13-13--|
E|---------------------------------------------------------------------------------|

e|--------------------------------------------------------------------------------|
B|--------------------------------------------------------------------------------|
G|---11-11-11-11-11--14-14-14-----------------------------------------------------|
D|---12-12-12-12-12---x--x--x-----------------------------------------------------|
A|---10-10-10-10-10--12-12-12-----------------------------------------------------|
E|--------------------------------------------------------------------------------|

Verse two:
'You're a vicious kind...'

e|---3---------------5------------------------------------------------|
B|---3------8--------8------------------------------------------------|
G|---5------7--------7------------------------------------------------|
D|---5----------------------------------------------------------------|
A|--------------------------------------------------------------------|
E|--------------------------------------------------------------------|

'Even when you're wrong...'

e|---3---------------------------------------------------------------|
B|---3--------8------------------------------------------------------|
G|---5--------7------------------------------------------------------|
D|---5---------------------------------------------------------------|
A|-------------------------------------------------------------------|
E|-------------------------------------------------------------------|

'On and on and on!'

e|---------------------------------------------------------------------------------|
B|---------------------------------------------------------------------------------|
G|---------------------------------------------------------------------------------|
D|---55555555-55555555-------------------------------------------------------------|
A|---55555555-22222222-------------------------------------------------------------|
E|---55555555----------------------------------------------------------------------|

'So I think...'

e|---------------------------------------------------------------------------------|
B|---------------------------------------------------------------------------------|
G|--10-10-10-10-10-10-10-10--------------------------------------------------------|
D|--10-10-10-10-10-10-10-10-5-5-5-5-5-5-5-5----------------------------------------|
A|--12-12-12-12-12-12-12-12-2-2-2-2-2-2-2-2----------------------------------------|
E|--12-12-12-12-12-12-12-12-2-2-2-2-2-2-2-2----------------------------------------|
     x  x  0  x  x  x  0  x x x 0 x x x 0 x

e|----------------------------------------------------------------------------------|
B|----------------------------------------------------------------------------------|
G|--7-7-7-7-7-7-7-7--7-7-7-7-7-7-7-7------------------------------------------------|
D|--7-7-7-7-7-7-7-7--7-7-7-7-7-7-7-7------------------------------------------------|
A|--5-5-5-5-5-5-5-5--0-0-0-0-0-0-0-0------------------------------------------------|
E|--5-5-5-5-5-5-5-5--0-0-0-0-0-0-0-0------------------------------------------------|
    x x 0 x x x 0 x  x x 0 x x x 0 x

'In the way you're always moving...'

e|---------------------------------------------------------------------------------|
B|---------------------------------------------------------------------------------|
G|--10-10-10-10-10-10-10-10--------------------------------------------------------|
D|--10-10-10-10-10-10-10-10-5-5-5-5-5-5-5-5----------------------------------------|
A|--12-12-12-12-12-12-12-12-2-2-2-2-2-2-2-2----------------------------------------|
E|--12-12-12-12-12-12-12-12-2-2-2-2-2-2-2-2----------------------------------------|
     x  x  0  x  x  x  0  x x x 0 x x x 0 x

'On and on and on!'

e|---------------------------------------------------------------------------------|
B|---------------------------------------------------------------------------------|
G|---------------------------------------------------------------------------------|
D|--55555555-55555555--------------------------------------------------------------|
A|--55555555-22222222--------------------------------------------------------------|
E|--55555555-----------------------------------------------------------------------|

'Oh the beat...'

e|------------------------------------------------------------------------------------|
B|------------------------------------------------------------------------------------|
G|---9999999-777777777-55555555~~~ Let ring, then hold.-------------------------------|
D|------------------------------------------------------------------------------------|
A|------------------------------------------------------------------------------------|
E|------------------------------------------------------------------------------------|

Chorus.

e|-------------------------------------------------------------------------------------|
B|-------------------------------------------------------------------------------------|
G|--12 12 12 12-4-4-4- 11-11-11-11-11-11-11-11-11--------------------------------------|
D|--x-x-x-x--x--x-x-x--x--x--x--x--x--x--x--x--x---------------------------------------|
A|--10 10 10 10-2-2-2--9--9--9--9--9--9--9--9--9---------------------------------------|
E|-------------------------------------------------------------------------------------|

e|----------------------------------------------------------------------------------|
B|----------------------------------------------------------------------------------|
G|--12 12 12 12-4-4-4- 9-9-9-9-11-11-11-11-11---------------------------------------|
D|--x-x-x-x--x--x-x-x--x--x--x--x--x--x--x--x---------------------------------------|
A|--10 10 10 10-2-2-2--7-7-7-7--9--9--9--9--9---------------------------------------|
E|----------------------------------------------------------------------------------|

e|-------------------------------------------------------------------------------------|
B|-------------------------------------------------------------------------------------|
G|--12 12 12 12-4-4-4- 11-11-11-11-11-11-11-11-11--------------------------------------|
D|--x-x-x-x--x--x-x-x--x--x--x--x--x--x--x--x--x---------------------------------------|
A|--10 10 10 10-2-2-2--9--9--9--9--9--9--9--9--9---------------------------------------|
E|-------------------------------------------------------------------------------------|

e|----------------------------------------------------------------------------------|
B|----------------------------------------------------------------------------------|
G|--12 12 12 12-4-4-4/-9-9-9-9-9-11/7-7-7-------------------------------------------|
D|--x--x--x--x--x-x-x--x-x-x-x-x-x--x-x-x-------------------------------------------|
A|--10 10 10 10-2-2-2/-7-7-7-7-7-11/5-5-5-------------------------------------------|
E|----------------------------------------------------------------------------------|

'All I ever wanted...'

e|---------------------------------------------------------------------------------|
B|---------------------------------------------------------------------------------|
G|-15-15-15-15-15-15-15-15-15-15-15-15-15-15-15-15-15-15--14-14-14-14-14-14-14-14--|
D|-x--x--x--x--x--x--x--x--x--x--x--x--x--x--x--x--x--x---15-15-15-15-15-15-15-15--|
A|-13-13-13-13-13-13-13-13-13-13-13-13-13-13-13-13-13-13--13-13-13-13-13-13-13-13--|
E|---------------------------------------------------------------------------------|


e|--------------------------------------------------------------------------------|
B|--------------------------------------------------------------------------------|
G|---11-11-11-11-11--14-14-14-----------------------------------------------------|
D|---12-12-12-12-12---x--x--x-----------------------------------------------------|
A|---10-10-10-10-10--12-12-12-----------------------------------------------------|
E|--------------------------------------------------------------------------------|

'I thought we were...'

e|---------------------------------------------------------------------------------|
B|---------------------------------------------------------------------------------|
G|-15-15-15-15-15-15-15-15-15-15-15-15-15-15-15-15-15-15--14-14-14-14-14-14-14-14--|
D|-x--x--x--x--x--x--x--x--x--x--x--x--x--x--x--x--x--x---15-15-15-15-15-15-15-15--|
A|-13-13-13-13-13-13-13-13-13-13-13-13-13-13-13-13-13-13--13-13-13-13-13-13-13-13--|
E|---------------------------------------------------------------------------------|

e|--------------------------------------------------------------------------------|
B|--------------------------------------------------------------------------------|
G|---11-11-11-11-11--14-14-14-----------------------------------------------------|
D|---12-12-12-12-12---x--x--x-----------------------------------------------------|
A|---10-10-10-10-10--12-12-12-----------------------------------------------------|
E|--------------------------------------------------------------------------------|

Interlude:

e|---------------------------------------------------------------------------------|
B|---------------------------------------------------------------------------------|
G|------11--12------------------11-11-11-11----------------------------------------|
D|--10-----------9-9--9-9-9(/)---------------12h-12---14-14/17-17------------------|
A|---------------------------------------------------------------------------------|
E|---------------------------------------------------------------------------------|

e|---------------------------------------------------------------------------------|
B|---------------------------------------------------------------------------------|
G|------11--12------------------11-11-11-11----------------------------------------|
D|--10-----------9-9--9-9-9(/)---------------12h-12---14-14/17-17------------------|
A|---------------------------------------------------------------------------------|
E|---------------------------------------------------------------------------------|


(Violin Solo:)

e|-------10---------------------------------------------------------------8--------|
B|--12--------10---8-------10/12---10---8---7------------7h8--7h8---10-------------|
G|---------------------7-------------------------9--7h9----------------------------|
D|---------------------------------------------------------------------------------|
A|---------------------------------------------------------------------------------|
E|---------------------------------------------------------------------------------|

e|------10------------------------------------------------------------------------|
B|--12-------10---8-------10\12---10----8p7---------------------------------------|
G|--------------------7-----------------------------------------------------------|
D|--------------------------------------------------------------------------------|
A|--------------------------------------------------------------------------------|
E|--------------------------------------------------------------------------------|


Behind violin solo:

e|---------------------------------------------------|
B|---------------------------------------------------|
G|--16-16-16-16-16-16-11-11-12-12-12-12-12-12-12-12--|
D|--x--x--x--x--x--x--x--x--x--x--x--x--x--x--x--x---|
A|--14-14-14-14-14-14-9--9--10-10-10-10-10-10-10-10--|
E|---------------------------------------------------|


e|------------------------------------------------------------------------------|
B|------------------------------------------------------------------------------|
G|--14-14-14-14-14-14-14-14-9-9-9-12-12-12-12-----------------------------------|
D|--x--x--x--x--x--x--x--x--x-x-x--x--x--x--x-----------------------------------|
A|--12-12-12-12-12-12-12-12-7-7-7-10-10-10-10-----------------------------------|
E|------------------------------------------------------------------------------|

e|---------------------------------------------------|
B|---------------------------------------------------|
G|--16-16-16-16-16-16-11-11-12-12-12-12-12-12-12-12--|
D|--x--x--x--x--x--x--x--x--x--x--x--x--x--x--x--x---|
A|--14-14-14-14-14-14-9--9--10-10-10-10-10-10-10-10--|


E|-------------------------------------------------------------------------------|
e|-------------------------------------------------------------------------------|
B|-------------------------------------------------------------------------------|
G|--16-16---16-16---16-16---11-11-11-11-11-11-11---------------------------------|
D|--x--x----x--x----x--x----x--x--x--x--x--x--x----------------------------------|
A|--14-14---14-14---14-14---9--9--9--9--9--9--9----------------------------------|
E|-------------------------------------------------------------------------------|

Bridge:
'Oh the beat...'

e|---------------------------------------------------------------------------|
B|---------------------------------------------------------------------------|
G|---12---11-----9~~~~~------------------------------------------------------|
D|---------------------------------------------------------------------------|
A|---------------------------------------------------------------------------|
E|---------------------------------------------------------------------------|

Chorus.
'I want you to know...'

e|-------------------------------------------------------------------------------------|
B|-------------------------------------------------------------------------------------|
G|--12 12 12 12-4-4-4- 11-11-11-11-11-11-11-11-11--------------------------------------|
D|--x-x-x-x--x--x-x-x--x--x--x--x--x--x--x--x--x---------------------------------------|
A|--10 10 10 10-2-2-2--9--9--9--9--9--9--9--9--9---------------------------------------|
E|-------------------------------------------------------------------------------------|

e|----------------------------------------------------------------------------------|
B|----------------------------------------------------------------------------------|
G|--12 12 12 12-4-4-4- 9-9-9-9-11-11-11-11-11---------------------------------------|
D|--x-x-x-x--x--x-x-x--x--x--x--x--x--x--x--x---------------------------------------|
A|--10 10 10 10-2-2-2--7-7-7-7--9--9--9--9--9---------------------------------------|
E|----------------------------------------------------------------------------------|

e|-------------------------------------------------------------------------------------|
B|-------------------------------------------------------------------------------------|
G|--12 12 12 12-4-4-4- 11-11-11-11-11-11-11-11-11--------------------------------------|
D|--x-x-x-x--x--x-x-x--x--x--x--x--x--x--x--x--x---------------------------------------|
A|--10 10 10 10-2-2-2--9--9--9--9--9--9--9--9--9---------------------------------------|
E|-------------------------------------------------------------------------------------|

e|----------------------------------------------------------------------------------|
B|----------------------------------------------------------------------------------|
G|--12 12 12 12-4-4-4/-9-9-9-9-9-11/7-7-7-------------------------------------------|
D|--x--x--x--x--x-x-x--x-x-x-x-x-x--x-x-x-------------------------------------------|
A|--10 10 10 10-2-2-2/-7-7-7-7-7-11/5-5-5-------------------------------------------|
E|----------------------------------------------------------------------------------|

'I want you to know...'
Second time (notice the difference).

e|-------------------------------------------------------------------------------------|
B|-------------------------------------------------------------------------------------|
G|--12 12 12 12-4-4-4- 11-11-11-11-11-11-11-11-11--------------------------------------|
D|--x-x-x-x--x--x-x-x--x--x--x--x--x--x--x--x--x---------------------------------------|
A|--10 10 10 10-2-2-2--9--9--9--9--9--9--9--9--9---------------------------------------|
E|-------------------------------------------------------------------------------------|

e|----------------------------------------------------------------------------------|
B|----------------------------------------------------------------------------------|
G|--12 12 12 12-4-4-4/-9-9-9-9-9-11/7-7-7-------------------------------------------|
D|--x--x--x--x--x-x-x--x-x-x-x-x-x--x-x-x-------------------------------------------|
A|--10 10 10 10-2-2-2/-7-7-7-7-7-11/5-5-5-------------------------------------------|
E|----------------------------------------------------------------------------------|

e|-------------------------------------------------------------------------------------|
B|-------------------------------------------------------------------------------------|
G|--12 12 12 12-4-4-4- 11-11-11-11-11-11-11-11-11--------------------------------------|
D|--x-x-x-x--x--x-x-x--x--x--x--x--x--x--x--x--x---------------------------------------|
A|--10 10 10 10-2-2-2--9--9--9--9--9--9--9--9--9---------------------------------------|
E|-------------------------------------------------------------------------------------|

e|----------------------------------------------------------------------------------|
B|----------------------------------------------------------------------------------|
G|--12 12 12 12-4-4-4/-9-9-9-9-9-11/7-7-7-------------------------------------------|
D|--x--x--x--x--x-x-x--x-x-x-x-x-x--x-x-x-------------------------------------------|
A|--10 10 10 10-2-2-2/-7-7-7-7-7-11/5-5-5-------------------------------------------|
E|----------------------------------------------------------------------------------|

'All I ever wanted...'

e|---------------------------------------------------------------------------------|
B|---------------------------------------------------------------------------------|
G|-15-15-15-15-15-15-15-15-15-15-15-15-15-15-15-15-15-15--14-14-14-14-14-14-14-14--|
D|-x--x--x--x--x--x--x--x--x--x--x--x--x--x--x--x--x--x---15-15-15-15-15-15-15-15--|
A|-13-13-13-13-13-13-13-13-13-13-13-13-13-13-13-13-13-13--13-13-13-13-13-13-13-13--|
E|---------------------------------------------------------------------------------|


e|--------------------------------------------------------------------------|
B|--------------------------------------------------------------------------|
G|---11---------------------------------------------------------------------|
D|---x----Let ring.---------------------------------------------------------|
A|---9----------------------------------------------------------------------|
E|--------------------------------------------------------------------------|


Gtr 2: (Ryan Key)

e|----------------------------------------------------------------------------------|
B|----------------------------------------------------------------------------------|
G|--------------------5555555555555555-------------------5555555555555--------------|
D|--55555555-77777777-5555555555555555-55555555-77777777-5555555555555--------------|
A|--22222222-00000000-3333333333333333-22222222-00000000-3333333333333-555----------|
E|--22222222-00000000------------------22222222-00000000---------------555----------|

Verse one: 'Let me say this...' (First time just bass and lead guitar). Come in on...

'On and on and on!'

e|-------------------------------------------------------------------------|
B|-------------------------------------------------------------------------|
G|-------------------------------------------------------------------------|
D|--55555555-55555555------------------------------------------------------|
A|--55555555-22222222------------------------------------------------------|
E|--55555555---------------------------------------------------------------|

e|-----------------------------------------------------------------------------|
B|-----------------------------------------------------------------------------|
G|--10-10---10-10-10------------7-7---7-7-7---7-7------------------------------|
D|--10-10---10-10-10---5-5------7-7---7-7-7---7-7------------------------------|
A|--12-12---12-12-12---2-2------5-5---5-5-5---0-0------------------------------|
E|--12-12---12-12-12---2-2------5-5---5-5-5---0-0------------------------------|
    x  x    x  0  x    x x      x x   x 0 x   x x

e|---------------------------------------------------------------------|
B|---------------------------------------------------------------------|
G|--10-10---10-10-10---------------------------------------------------|
D|--10-10---10-10-10---5-5---------------------------------------------|
A|--12-12---12-12-12---2-2---------------------------------------------|
E|--12-12---12-12-12---2-2----12\--------------------------------------|
    x  x    x  0  x    x x

'On and on and on!'

e|-------------------------------------------------------------------------|
B|-------------------------------------------------------------------------|
G|-------------------------------------------------------------------------|
D|--55555555-55555555------------------------------------------------------|
A|--55555555-22222222------------------------------------------------------|
E|--55555555---------------------------------------------------------------|

Pre-Chorus: 'For a while...' (Palm mute)

e|--------------------------------------------------------------------------------|
B|--------------------------------------------------------------------------------|
G|-----------77777777-12-12-12-12-12-12-12-12-12-12-12-12-12-12-12-12-------------|
D|--55555555-77777777-12-12-12-12-12-12-12-12-12-12-12-12-12-12-12-12-------------|
A|--22222222-55555555-10-10-10-10-10-10-10-10-10-10-10-10-10-10-10-10-------------|
E|--22222222-55555555-10-10-10-10-10-10-10-10-10-10-10-10-10 10-10-10-------------|

'But the beat...' (Palm mute expect last note)

e|-----------------------------------------------------------------------------|
B|-----------------------------------------------------------------------------|
G|-----------77777777-12-12-12-12-12-12-12-12-12-12-12-12-12-12-12-------------|
D|--55555555-77777777-12-12-12-12-12-12-12-12-12-12-12-12-12-12-12-------------|
A|--22222222-55555555-10-10-10-10-10-10-10-10-10-10-10-10-10-10-10-------------|
E|--22222222-55555555-10-10-10-10-10-10-10-10-10-10-10-10-10 10-10-------------|

Chorus: 'I want you to know...'

e|----------------------------------------------------------------------------------|
B|----------------------------------------------------------------------------------|
G|--------------------5555555555555555-------------------5555555555555--------------|
D|--55555555-77777777-5555555555555555-55555555-77777777-5555555555555--------------|
A|--22222222-00000000-3333333333333333-22222222-00000000-3333333333333-555----------|
E|--22222222-00000000------------------22222222-00000000---------------555----------|

'All I ever wanted was...'

e|---------------------------------------------------------------------------------|
B|---------------------------------------------------------------------------------|
G|--5555555555555555-------------------5555555555555555----------------------------|
D|--xxxxxxxxxxxxxxxx-55555555-77777777-xxxxxxxxxxxxxxxx-55555555-77777777----------|
A|--7777777777777777-22222222-00000000-7777777777777777-22222222-00000000----------|
E|--7777777777777777-22222222-00000000-7777777777777777-22222222-00000000----------|

Verse two: 'You're a vicious kind...'

e|-----------------------------------------------------------------------------|
B|-----------------------------------------------------------------------------|
G|--10-10---10-10-10------------7-7---7-7-7---7-7------------------------------|
D|--10-10---10-10-10---5-5------7-7---7-7-7---7-7------------------------------|
A|--12-12---12-12-12---2-2------5-5---5-5-5---0-0------------------------------|
E|--12-12---12-12-12---2-2------5-5---5-5-5---0-0------------------------------|
    x  x    x  0  x    x x      x x   x 0 x   x x

e|---------------------------------------------------------------------|
B|---------------------------------------------------------------------|
G|--10-10---10-10-10---------------------------------------------------|
D|--10-10---10-10-10---5-5---------------------------------------------|
A|--12-12---12-12-12---2-2---------------------------------------------|
E|--12-12---12-12-12---2-2----12\--------------------------------------|
    x  x    x  0  x    x x

'On and on and on!'

e|-------------------------------------------------------------------------|
B|-------------------------------------------------------------------------|
G|-------------------------------------------------------------------------|
D|--55555555-55555555------------------------------------------------------|
A|--55555555-22222222------------------------------------------------------|
E|--55555555---------------------------------------------------------------|

'So I think it's time...'

e|---------------------------------------------------------------------------------|
B|---------------------------------------------------------------------------------|
G|--10-10-10-10-10-10-10-10--------------------------------------------------------|
D|--10-10-10-10-10-10-10-10-5-5-5-5-5-5-5-5----------------------------------------|
A|--12-12-12-12-12-12-12-12-2-2-2-2-2-2-2-2----------------------------------------|
E|--12-12-12-12-12-12-12-12-2-2-2-2-2-2-2-2----------------------------------------|
     x  x  0  x  x  x  0  x x x 0 x x x 0 x

e|----------------------------------------------------------------------------------|
B|----------------------------------------------------------------------------------|
G|--7-7-7-7-7-7-7-7--7-7-7-7-7-7-7-7------------------------------------------------|
D|--7-7-7-7-7-7-7-7--7-7-7-7-7-7-7-7------------------------------------------------|
A|--5-5-5-5-5-5-5-5--0-0-0-0-0-0-0-0------------------------------------------------|
E|--5-5-5-5-5-5-5-5--0-0-0-0-0-0-0-0------------------------------------------------|
    x x 0 x x x 0 x  x x 0 x x x 0 x

'In the way you're always moving...'

e|---------------------------------------------------------------------------------|
B|---------------------------------------------------------------------------------|
G|--10-10-10-10-10-10-10-10--------------------------------------------------------|
D|--10-10-10-10-10-10-10-10-5-5-5-5-5-5-5-5----------------------------------------|
A|--12-12-12-12-12-12-12-12-2-2-2-2-2-2-2-2----------------------------------------|
E|--12-12-12-12-12-12-12-12-2-2-2-2-2-2-2-2----------------------------------------|
     x  x  0  x  x  x  0  x x x 0 x x x 0 x

'On and on and on!'

e|------------------------------------------------------------------|
B|------------------------------------------------------------------|
G|------------------------------------------------------------------|
D|--55555555-55555555-----------------------------------------------|
A|--55555555-22222222-----------------------------------------------|
E|--55555555--------------------------------------------------------|

'Oh the beat...' (Palm mute but let last note ring)

e|---------------------------------------------------------------------------|
B|---------------------------------------------------------------------------|
G|-----------77777777-12-12-12-12-12-12-12-12--------------------------------|
D|--55555555-77777777-12-12-12-12-12-12-12-12--------------------------------|
A|--22222222-55555555-10-10-10-10-10-10-10-10--------------------------------|
E|--22222222-55555555-10-10-10-10-10-10-10-10--------------------------------|

Chorus. 'I want...'

e|----------------------------------------------------------------------------------|
B|----------------------------------------------------------------------------------|
G|--------------------5555555555555555-------------------5555555555555--------------|
D|--55555555-77777777-5555555555555555-55555555-77777777-5555555555555--------------|
A|--22222222-00000000-3333333333333333-22222222-00000000-3333333333333-555----------|
E|--22222222-00000000------------------22222222-00000000---------------555----------|

'All I ever wanted...'

e|---------------------------------------------------------------------------------|
B|---------------------------------------------------------------------------------|
G|--5555555555555555-------------------5555555555555555----------------------------|
D|--xxxxxxxxxxxxxxxx-55555555-77777777-xxxxxxxxxxxxxxxx-55555555-77777777----------|
A|--7777777777777777-22222222-00000000-7777777777777777-22222222-00000000----------|
E|--7777777777777777-22222222-00000000-7777777777777777-22222222-00000000----------|

Interlude (guitar and violin solos).

e|-----------------------------------------------------------------------------|
B|-----------------------------------------------------------------------------|
G|--5555555------------------2222-----------------------------2222-------------|
D|--5555555--555555--777777--2222---5555555-555555--77777777--2222-------------|
A|--3333333--222222--000000--0000---3333333-222222--00000000--0000-------------|
E|-----------222222--000000-----------------222222--00000000-------------------|

e|-----------------------------------------------------------------------------------|
B|-----------------------------------------------------------------------------------|
G|--55555555-------------------22222222----------------------------------------------|
D|--55555555-55555555-77777777-22222222--55555555-55555555-77-77-77-7777777----------|
A|--33333333-22222222-00000000-00000000--33333333-22222222-00-00-00-0000000----------|
E|-----------22222222-00000000--------------------22222222-00-00-00-0000000----------|

Bridge: 'Oh the beat...' (let ring)

e|-----------------------------------------------------------------------|
B|-----------------------------------------------------------------------|
G|--12------11------12---------------------------------------------------|
D|--12------12------12---------------------------------------------------|
A|--10------10------10---------------------------------------------------|
E|----------10------10---------------------------------------------------|

Chorus. 'I want...' X2

e|----------------------------------------------------------------------------------|
B|----------------------------------------------------------------------------------|
G|--------------------5555555555555555-------------------5555555555555--------------|
D|--55555555-77777777-5555555555555555-55555555-77777777-5555555555555--------------|
A|--22222222-00000000-3333333333333333-22222222-00000000-3333333333333-555----------|
E|--22222222-00000000------------------22222222-00000000---------------555----------|

'All I ever wanted was...' (let last note ring)

e|---------------------------------------------------------------------------------|
B|---------------------------------------------------------------------------------|
G|--5555555555555555-------------------5555555555555555----------------------------|
D|--xxxxxxxxxxxxxxxx-55555555-77777777-xxxxxxxxxxxxxxxx-55555555-7-----------------|
A|--7777777777777777-22222222-00000000-7777777777777777-22222222-0-----------------|
E|--7777777777777777-22222222-00000000-7777777777777777-22222222-0-----------------|


Thanks. Enjoy.
comments
We did not receive enough feedback on this tab! Please rate:
print report bad tab
1 2 3 4 5
I want to post or [tab]
guest
You may want to rate the tab now too:
select rating
Please do not post tabs as comments. Select "correction" instead!