Oops, an error
Loading. Please wait.

Drifting Tab

1,335 views 1 this week
1 commentread comment
1 2 3 4 5
excellent!
x 3
Autoscroll
+/-
esc
set tempo
stop
Hey! There's an official Ultimate Guitar app which is ideal
for learning songs when you're away from computer. Get the app
WARNING: You are trying to view
                                    content from Ultimate-Guitar.com
                                    in an unauthorized application,
                                    which is prohibited.

                                    Please use an official Ultimate
                                    Guitar Tabs application for iPhone,
                                    iPad or Android to access legitimate
                                    chords, guitar, bass, and drum tabs
                                    from Ultimate-Guitar.com database.

                                    Type "ultimate guitar tabs" in Apple
                                    App Store's or Android Market's
                                    search to find the application.
\  - slide down
/  - slide up
p  - pull off
h  - hammer on
*  - harmonic
pm - palm mute

7x
7x  -  mute strings after strum
5x

----------------
 GUITAR 1 PARTS
----------------

INTRO
  "When I look into your eyes..."
e|-------------------------------------------------------------------
B|--------------------2---2--2--3-3--2--2-2-2------------------------
G|-------7--7--6--6---4---4--4--4-4--4--4-4-4--7-7-7--7--7-7-7-7-----
D|--------------------4---4--4--4-4--4--4-4-4--7-7-7--7--7-7-7-7-----
A|-0--0--5--5--4--4---2---2--2--2-2--2--2-2-2--5-5-5--5--5-5-5-5-----
D|-0--0----------------------------------------5-5-5--5--5-5-5-5-----
                                               pm.       .......
e|-------------------------------------------------------------------
B|-------------------------------------------------------------------
G|--7/9\7---7-7-7-7-7--7--7-7---7\6-6-6\4-4-4\2---------7--7--6--6---
D|----------7-7-7-7-7--7--7-7----------------------------------------
A|--5/7\5---5-5-5-5-5--5--5-5---5\4-4-4\2-2-2\0---0--0--5--5--4--4---
D|----------5-5-5-5-5--5--5-5---------------------0--0---------------
            pm.....       ....
e|-------------------------------------------------------------------
B|----2---2--2--3-3--2--2-2-2----------------------------------------
G|----4---4--4--4-4--4--4-4-4--7-7-7x----7-7-7x----7-7-7--7-7-7x-----
D|----4---4--4--4-4--4--4-4-4--7-7-7x----7-7-7x----7-7-7--7-7-7x-----
A|----2---2--2--2-2--2--2-2-2--5-5-5x----5-5-5x----5-5-5--5-5-5x-----
D|-----------------------------5-5-5x----5-5-5x----5-5-5--5-5-5x-----

e|-------------------------------------------------------------------
B|-----------------------------------2---2--2--3-3--2--2-2-2---------
G|-7-7-7x---------------7--7--6--6---4---4--4--4-4--4--4-4-4--7-7-7--
D|-7-7-7x----5h7---------------------4---4--4--4-4--4--4-4-4--7-7-7--
A|-5-5-5x---------0--0--5--5--4--4---2---2--2--2-2--2--2-2-2--5-5-5--
D|-5-5-5x---------0--0----------------------------------------5-5-5--
                                                              pm.
e|-------------------------------------------------------------------
B|-------------------------------------------------------------------
G|-7--7-7-7-7---7/9\7---7-7-7-7-7--7--7-7--7\6-6-6\4-4-4\2-----------
D|-7--7-7-7-7-----------7-7-7-7-7--7--7-7----------------------------
A|-5--5-5-5-5---5/7\5---5-5-5-5-5--5--5-5--5\4-4-4\2-2-2\0---0--0----
D|-5--5-5-5-5-----------5-5-5-5-5--5--5-5--------------------0--0----
      pm.....           .......       ...
e|-------------------------------------------------------------------
B|--------------2---2--2--3-3--2--2-2-2------------------------------
G|-7--7--6--6---4---4--4--4-4--4--4-4-4--7-7-7x----7-7-7x----7-7-7---
D|--------------4---4--4--4-4--4--4-4-4--7-7-7x----7-7-7x----7-7-7---
A|-5--5--4--4---2---2--2--2-2--2--2-2-2--5-5-5x----5-5-5x----5-5-5---
D|---------------------------------------5-5-5x----5-5-5x----5-5-5---

e|-------------------------------------------------------------------
B|-------------------------------------------------------------------
G|-6-6-6x---6-6-6x---------------------------------------------------
D|-7-7-7x---7-7-7x---------------------------------------------------
A|-4-4-4x---4-4-4x---------------------------------------------------
D|-------------------------------------------------------------------


VERSE
   "I don't know you anymore..."
e|-------------------------------------------------------------------
B|-------------------------------------------------------------------
G|---------------------------------2-2-2-2-2-2-4-4-4-4-4-4-4-4-4-4---
D|-4-4-4-4-4-4-6-6-6-6-6-6-6-6-6-6-----------------------------------
A|-------------------------------------------------------------------
D|-------------------------------------------------------------------
   pm.............................................(slowly release)
e|-------------------------------------------------------------------
B|-------------------------------------------------------------------
G|-2-2-2-2-2-2-2-2-2-2-2-2-2-2-2-2-6-6-6-6x-----7~-------------------
D|-2-2-2-2-2-2-2-2-2-2-2-2-2-2-2-2-7-7-7-7x-----7~-------------------
A|-0-0-0-0-0-0-0-0-0-0-0-0-0-0-0-0-4-4-4-4x-----5~-------------------
D|-------------------------------------------------------------------

e|-------------------------------------------------------------------
B|-------------------------------------------------------------------
G|-------------------------------------------------------------------
D|-4-4-4-4-4-4-6-6-6-6-6-6-6-6-6-6-4-4-4-4-4-4-2-2-2-2-2-2-2-2-2-2---
A|-------------------------------------------------------------------
D|-------------------------------------------------------------------
   pm.............................................(slowly release)

e|-------------------------------------------------------------------
B|-------------------------------------------------------------------
G|-2-2-2-2-2-2-2-2-2-2-2-2-2-2-2-2-6-6-6-6x-----7~-------------------
D|-2-2-2-2-2-2-2-2-2-2-2-2-2-2-2-2-7-7-7-7x-----7~-------------------
A|-0-0-0-0-0-0-0-0-0-0-0-0-0-0-0-0-4-4-4-4x-----5~-------------------
D|-------------------------------------------------------------------


BRAND NEW SONG (x2)
   "Start a brand new song..."
e|-------------------------------------------------------------------
B|-------------------------------------------------------------------
G|-7-7-7-----------------------------------------------4-4--4--4-4-4-
D|-7-7-7-----------------------------------------------4-4--4--4-4-4-
A|-5-5-5--4---5-5--5--5-5-5--2-2-2--4---5-5--5--5-5-5--2-2--2--2-2-2-
D|--------4---5-5--5--5-5-5--2-2-2--4---5-5--5--5-5-5----------------

e|----------------|-------------------|------------------------------
B|----------------|--(first-time)-----|------(second-time)-----------
G|-2-2--2--2-2-2--|-------------------|------------------------------
D|-2-2--2--2-2-2--|-------------------|------------------------------
A|-0-0--0--0-0-0--|--5--5--5--5--5-5--|-5-5--5--5-5-5-5-5--5-5-5-5-5-
D|----------------|--5--5--5--5--5-5--|-5-5--5--5-5-5-5-5--5-5-5-5-5-
                                                             pm.....

VIOLIN PART
   "If once, you could only understand..."
e|-------------------------------------------------------------------
B|-------------------------------------------------------------------
G|-------------------------------------------------------------------
D|------------------------4~--2~--0~---------------------------------
A|--2~----0~--------0~-------------------2~----0~--------------------
D|------------5~-----------------------------------5~----------------

e|-------------------------------------------------------------------
B|-------------------------------------------------------------------
G|-2-2-2-2-2-2-2-2-2-2-2-2-2-2-2-2-----------------------------------
D|-2-2-2-2-2-2-2-2-2-2-2-2-2-2-2-2-----------------------------------
A|-0-0-0-0-0-0-0-0-0-0-0-0-0-0-0-0-5x--------------------------------
D|---------------------------------5x--------------------------------
     pm...........................


FAST PART (x2)
   "You were young like me..."
e|-------------------------------------------------------------------
B|-------------------------------------------------------------------
G|-7--7--7--7--7-7-7-7--7--7--7--7--7-7-7-7--5--5--5--5--5-5-5-5-----
D|-7--7--7--7--7-7-7-7--7--7--7--7--7-7-7-7--5--5--5--5--5-5-5-5-----
A|-5--5--5--5--5-5-5-5--5--5--5--5--5-5-5-5--3--3--3--3--3-3-3-3-----
D|-------------------------------------------------------------------
            pm........           ..........           ..........
e|-------------------------------------------------------------------
B|-------------------------------------------------------------------
G|-5--5--5--5--5-5-5-5--7--7--7--7--7-7-7-7------------2-2-2-2-2-2-2-
D|-5--5--5--5--5-5-5-5--7--7--7--7--7-7-7-7------------2-2-2-2-2-2-2-
A|-3--3--3--3--3-3-3-3--5--5--5--5--5-5-5-5--5-7-5-4-2-0-0-0-0-0-0-0-
D|-------------------------------------------------------------------
            pm........           ..........            ...   .....
e|-------------------------------------------------------------------
B|-------------------------------------------------------------------
G|-2-4-4-4-2-2-2-2---------------------------------------------------
D|-2-4-4-4-2-2-2-2---------------------------------------------------
A|-0-2-2-2-0-0-0-0---------------------------------------------------
D|-------------------------------------------------------------------
   pm.     ...


NEXT FAST PART
   "And now it's time, you took something back...."
e|-------------------------------------------------------------------
B|-------------------------------------------------------------------
G|-------------------------------------------------------------------
D|-------------------------------------------------------------------
A|-5--5--5--5--5-5-5-5--5--5--5--5--5-5-5-5--5--5--5--5--5-5-5-5-----
D|-5--5--5--5--5-5-5-5--5--5--5--5--5-5-5-5--5--5--5--5--5-5-5-5-----

e|-------------------------------------------------------------------
B|-------------------------------------------------------------------
G|----------------------4--4--4--4--4-4-4-4--2--2--2--2--2-2-2-2-----
D|----------------------4--4--4--4--4-4-4-4--2--2--2--2--2-2-2-2-----
A|-5--5--5--5--5-5-5-5--2--2--2--2--2-2-2-2--0--0--0--0--0-0-0-0-----
D|-5--5--5--5--5-5-5-5-----------------------------------------------

e|-------------------------------------------------------------------
B|-------------------------------------------------------------------
G|-------------------------------------------4--4--4--4--4-4-4-4-----
D|-------------------------------------------4--4--4--4--4-4-4-4-----
A|-5--5--5--5--5-5-5-5--5--5--5--5--5-5-5-5--2--2--2--2--2-2-2-2-----
D|-5--5--5--5--5-5-5-5--5--5--5--5--5-5-5-5--------------------------

e|-------------------------------------------------------------------
B|-------------------------------------------------------------------
G|-2--2--2--2--2-2-2-2-----------------------------------------------
D|-2--2--2--2--2-2-2-2-----------------------------------------------
A|-0--0--0--0--0-0-0-0--5--5--5--5--5-5-5-5--5--5--5--5--5-5-5-5-----
D|----------------------5--5--5--5--5-5-5-5--5--5--5--5--5-5-5-5-----

e|-------------------------------------------------------------------
B|-------------------------------------------------------------------
G|-4~--------------2~------------------------------------------------
D|-4~--------------2~------------------------------------------------
A|-2~--------------0~--------------5--5-5-5-5-5-5-5-5-5-5-5-5-5-5-5--
D|---------------------------------5--5-5-5-5-5-5-5-5-5-5-5-5-5-5-5--
                                      pm...........................


SLOW PRETTY PART
   "When I look into your eyes..."
e|-------------------------------------------------------------------
B|-------------------------------------------------------------------
G|---------------------7-7-7--7--7-7-7-7---7/9\7---7-7-7-7-7--7--7-7-
D|---------------------7-7-7--7--7-7-7-7-----------7-7-7-7-7--7--7-7-
A|-0~------------------5-5-5--5--5-5-5-5---5/7\5---5-5-5-5-5--5--5-5-
D|-0~------------------5-5-5--5--5-5-5-5-----------5-5-5-5-5--5--5-5-
                       pm.       .......           .......       ...
e|-------------------------------------------------------------------
B|-------------------------------------------------------------------
G|-7\6-6-6\4-4-4\2-------6----6h7-6-4-2----7-7-7x----7-7-7x----7-7-7-
D|-----------------------------------------7-7-7x----7-7-7x----7-7-7-
A|-5\4-4-4\2-2-2\0--0~---------------------5-5-5x----5-5-5x----5-5-5-
D|------------------0~---------------------5-5-5x----5-5-5x----5-5-5-

e|-------------------------------------------------------------------
B|-------------------------------------------2---2--2--3-3--2--2-2-2-
G|-7-7-7x---7-7-7x--------------7--7--6--6---4---4--4--4-4--4--4-4-4-
D|-7-7-7x---7-7-7x---5h7---------------------4---4--4--4-4--4--4-4-4-
A|-5-5-5x---5-5-5x--------0--0--5--5--4--4---2---2--2--2-2--2--2-2-2-
D|-5-5-5x---5-5-5x--------0--0---------------------------------------

e|-------------------------------------------------------------------
B|-------------------------------------------------------------------
G|-7-7-7--7--7-7-7-7---7/9\7---7-7-7-7-7--7--7-7--7\6-6-6\4-4-4\2----
D|-7-7-7--7--7-7-7-7-----------7-7-7-7-7--7--7-7---------------------
A|-5-5-5--5--5-5-5-5---5/7\5---5-5-5-5-5--5--5-5--5\4-4-4\2-2-2\0----
D|-5-5-5--5--5-5-5-5-----------5-5-5-5-5--5--5-5---------------------

e|-------------------------------------------------------------------
B|---------------------2---2--2--3-3--2--2-2-2--7-7-7x----7-7-7x-----
G|--------7--7--6--6---4---4--4--4-4--4--4-4-4--7-7-7x----7-7-7x-----
D|---------------------4---4--4--4-4--4--4-4-4--5-5-5x----5-5-5x-----
A|-0--0---5--5--4--4---2---2--2--2-2--2--2-2-2--5-5-5x----5-5-5x-----
D|-0--0--------------------------------------------------------------

e|-------------------------------------------------------------------
B|-7-7-7-------------------------------------------------------------
G|-7-7-7--6-6-6x---6-6-6x--------------------------------------------
D|-5-5-5--7-7-7x---7-7-7x--------------------------------------------
A|-5-5-5--4-4-4x---4-4-4x--------------------------------------------
D|-----------------------------------------0~------------------------




----------------
 GUITAR 2 PARTS
----------------

INTRO
  "When I look into your eyes..."
e|-------------------------------------------------------------------
B|--------------------2---2--2--3-3--2--2-2-2------------------------
G|------11-11--9--9---4---4--4--4-4--4--4-4-4--7-7-7--7--7-7-7-7-----
D|--------------------4---4--4--4-4--4--4-4-4--7-7-7--7--7-7-7-7-----
A|-0--0--9--9--7--7---2---2--2--2-2--2--2-2-2--5-5-5--5--5-5-5-5-----
D|-0--0----------------------------------------5-5-5--5--5-5-5-5-----
                                               pm.       .......
e|-------------------------------------------------------------------
B|-------------------------------------------------------------------
G|-11/12\11-7-7-7-7-7--7--7-7--11\9-9-9\7-7-7\6--------11-11--9--9---
D|----------7-7-7-7-7--7--7-7----------------------------------------
A|--9/10\9--5-5-5-5-5--5--5-5---9\7-7-7\5-5-5\4---0--0--9--9--7--7---
D|----------5-5-5-5-5--5--5-5---------------------0--0---------------
            pm.....       ....
e|-------------------------------------------------------------------
B|----2---2--2--3-3--2--2-2-2----------------------------------------
G|----4---4--4--4-4--4--4-4-4--7-7-7x----7-7-7x----7-7-7--7-7-7x-----
D|----4---4--4--4-4--4--4-4-4--7-7-7x----7-7-7x----7-7-7--7-7-7x-----
A|----2---2--2--2-2--2--2-2-2--5-5-5x----5-5-5x----5-5-5--5-5-5x-----
D|-----------------------------5-5-5x----5-5-5x----5-5-5--5-5-5x-----

e|-------------------------------------------------------------------
B|-----------------------------------2---2--2--3-3--2--2-2-2---------
G|-7-7-7x--------------11-11--9--9---4---4--4--4-4--4--4-4-4--7-7-7--
D|-7-7-7x----------------------------4---4--4--4-4--4--4-4-4--7-7-7--
A|-5-5-5x---------0--0--9--9--7--7---2---2--2--2-2--2--2-2-2--5-5-5--
D|-5-5-5x---------0--0----------------------------------------5-5-5--
                                                              pm.
e|-------------------------------------------------------------------
B|-------------------------------------------------------------------
G|-7--7-7-7-7--11/12\11--7-7-7-7-7--7--7-7--11\9-9-9\7-7-7\6---------
D|-7--7-7-7-7------------7-7-7-7-7--7--7-7---------------------------
A|-5--5-5-5-5---9/10\9---5-5-5-5-5--5--5-5---9\7-7-7\5-5-5\4---0--0--
D|-5--5-5-5-5------------5-5-5-5-5--5--5-5---------------------0--0--
      pm.....            .......       ...
e|-------------------------------------------------------------------
B|---------------2---2--2--3-3--2--2-2-2-----------------------------
G|-11-11--9--9---4---4--4--4-4--4--4-4-4--7-7-7x----7-7-7x----7-7-7--
D|---------------4---4--4--4-4--4--4-4-4--7-7-7x----7-7-7x----7-7-7--
A|--9--9--7--7---2---2--2--2-2--2--2-2-2--5-5-5x----5-5-5x----5-5-5--
D|----------------------------------------5-5-5x----5-5-5x----5-5-5--

e|-------------------------------------------------------------------
B|-------------------------------------------------------------------
G|-6-6-6x---6-6-6x---------------------------------------------------
D|-7-7-7x---7-7-7x---------------------------------------------------
A|-4-4-4x---4-4-4x---------------------------------------------------
D|-------------------------------------------------------------------


VERSE
   "I don't know you anymore..."
e|-------------------------------------------------------------------
B|------------------------------------------2h3p2---2----------------
G|------------------------------------------------4---4-2-4----------
D|-------------------------------------------------------------------
A|-------------------------------------------------------------------
D|-------------------------------------------------------------------
 
e|-------------------------------------------------------------------
B|-------------------------------------------------------------------
G|-2-2-2-2-2-2-2-2-2-2-2-2-2-2-2-2-6-6-6-6x-----7~-------------------
D|-2-2-2-2-2-2-2-2-2-2-2-2-2-2-2-2-7-7-7-7x-----7~-------------------
A|-0-0-0-0-0-0-0-0-0-0-0-0-0-0-0-0-4-4-4-4x-----5~-------------------
D|-------------------------------------------------------------------

e|---------------------------------------------------------------0---
B|---------------------------------------------------2h3p2---2-3-----
G|---------------------------------2-2-2-2-2-2-4-4-4-------4---------
D|-4-4-4-4-4-4-6-6-6-6-6-6-6-6-6-6-----------------------------------
A|-------------------------------------------------------------------
D|-------------------------------------------------------------------
   pm...............................(slowly release)

e|-------------------------------------------------------------------
B|-------------------------------------------------------------------
G|-2-2-2-2-2-2-2-2-2-2-2-2-2-2-2-2-6-6-6-6x-----7~-------------------
D|-2-2-2-2-2-2-2-2-2-2-2-2-2-2-2-2-7-7-7-7x-----7~-------------------
A|-0-0-0-0-0-0-0-0-0-0-0-0-0-0-0-0-4-4-4-4x-----5~-------------------
D|-------------------------------------------------------------------


BRAND NEW SONG (x2)
   "Start a brand new song..."
e|--------------------------------|----------------------------------
B|-------(only-play-the-----------|----------------------------------
G|-7-7-7-------second-time)-------|--------------------4-4--4--4-4-4-
D|-7-7-7--------------------------|--------------------4-4--4--4-4-4-
A|-5-5-5--4--5-5--5--5-5-5--2-2-2-|-4---5-5--5--5-5-5--2-2--2--2-2-2-
D|--------4--5-5--5--5-5-5--2-2-2-|-4---5-5--5--5-5-5----------------

e|----------------|-------------------|------------------------------
B|----------------|--(first-time)-----|------(second-time)-----------
G|-2-2--2--2-2-2--|-------------------|------------------------------
D|-2-2--2--2-2-2--|-------------------|------------------------------
A|-0-0--0--0-0-0--|--5--5--5--5--5-5--|-5-5--5--5-5-5-5-5--5-5-5-5-5-
D|----------------|--5--5--5--5--5-5--|-5-5--5--5-5-5-5-5--5-5-5-5-5-
                                                             pm.....

VIOLIN PART
   "If once, you could only understand..."
e|--0~----2~-----------------------------0~----2~--------------------
B|------------3~-----------------------------------3~----------------
G|-------------------------------------------------------------------
D|------------------------4~--2~--0~---------------------------------
A|------------------0~-----------------------------------------------
D|-------------------------------------------------------------------

e|-------------------------------------------------------------------
B|-------------------------------------------------------------------
G|-2-2-2-2-2-2-2-2-2-2-2-2-2-2-2-2-----------------------------------
D|-2-2-2-2-2-2-2-2-2-2-2-2-2-2-2-2-----------------------------------
A|-0-0-0-0-0-0-0-0-0-0-0-0-0-0-0-0-5x--------------------------------
D|---------------------------------5x--------------------------------
     pm...........................


FAST PART (x2) (this is really the violin part)
   "You were young like me..."
e|-------------------------------------------------------------------
B|-------------------------------------------------------------------
G|-------------------------------------------------------------------
D|-4--4--4--4--4-4-4-4--4--4--4--4--4-4-4-4--2--2--2--2--2-2-2-2-----
A|-------------------------------------------------------------------
D|-------------------------------------------------------------------
            pm........           ..........           ..........
e|-------------------------------------------------------------------
B|-------------------------------------------------------------------
G|-------------------------------------------------------------------
D|-2--2--2--2--2-2-2-2--4--4--4--4--4-4-4-4--7-9-7-5-4--2~-4~--2h4p2-
A|-------------------------------------------------------------------
D|-------------------------------------------------------------------
            pm........           ..........            


NEXT FAST PART
   "And now it's time, you took something back...."
e|-------------------------------------------------------------------
B|-------------------------------------------------------------------
G|-------------------------------------------------------------------
D|-------------------------------------------------------------------
A|-5--5--5--5--5-5-5-5--5--5--5--5--5-5-5-5--5--5--5--5--5-5-5-5-----
D|-5--5--5--5--5-5-5-5--5--5--5--5--5-5-5-5--5--5--5--5--5-5-5-5-----

e|-------------------------------------------------------------------
B|-------------------------------------------------------------------
G|----------------------4--4--4--4--4-4-4-4--2--2--2--2--2-2-2-2-----
D|----------------------4--4--4--4--4-4-4-4--2--2--2--2--2-2-2-2-----
A|-5--5--5--5--5-5-5-5--2--2--2--2--2-2-2-2--0--0--0--0--0-0-0-0-----
D|-5--5--5--5--5-5-5-5-----------------------------------------------

e|-------------------------------------------------------------------
B|-------------------------------------------------------------------
G|-------------------------------------------4--4--4--4--4-4-4-4-----
D|-------------------------------------------4--4--4--4--4-4-4-4-----
A|-5--5--5--5--5-5-5-5--5--5--5--5--5-5-5-5--2--2--2--2--2-2-2-2-----
D|-5--5--5--5--5-5-5-5--5--5--5--5--5-5-5-5--------------------------

e|-------------------------------------------------------------------
B|-------------------------------------------------------------------
G|-2--2--2--2--2-2-2-2-----------------------------------------------
D|-2--2--2--2--2-2-2-2-----------------------------------------------
A|-0--0--0--0--0-0-0-0--5--5--5--5--5-5-5-5--5--5--5--5--5-5-5-5-----
D|----------------------5--5--5--5--5-5-5-5--5--5--5--5--5-5-5-5-----

e|-------------------------------------------------------------------
B|-------------------------------------------------------------------
G|-4~--------------2~------------------------------------------------
D|-4~--------------2~------------------------------------------------
A|-2~--------------0~--------------5--5-5-5-5-5-5-5-5-5-5-5-5-5-5-5--
D|---------------------------------5--5-5-5-5-5-5-5-5-5-5-5-5-5-5-5--
                                      pm...........................


SLOW PRETTY PART
   "When I look into your eyes..."
e|-------------------------------------------------------------------
B|-------------------------------------------------------------------
G|---------------------7-7-7--7--7-7-7-7--11/12\11-7-7-7-7-7--7--7-7-
D|---------------------7-7-7--7--7-7-7-7-----------7-7-7-7-7--7--7-7-
A|-0~------------------5-5-5--5--5-5-5-5---9/10\9--5-5-5-5-5--5--5-5-
D|-0~------------------5-5-5--5--5-5-5-5-----------5-5-5-5-5--5--5-5-
                       pm.       .......           .......       ...
e|-------------------------------------------------------------------
B|------------------------7----7h8-7-5-------------------------------
G|-11\9-9-9\7-7-7\6--------------------7---7-7-7x----7-7-7x----7-7-7-
D|-----------------------------------------7-7-7x----7-7-7x----7-7-7-
A|--9\7-7-7\5-5-5\4--0~--------------------5-5-5x----5-5-5x----5-5-5-
D|-------------------0~--------------------5-5-5x----5-5-5x----5-5-5-

e|-------------------------------------------------------------------
B|-------------------------------------------2---2--2--3-3--2--2-2-2-
G|-7-7-7x---7-7-7x-------------11-11--9--9---4---4--4--4-4--4--4-4-4-
D|-7-7-7x---7-7-7x---------------------------4---4--4--4-4--4--4-4-4-
A|-5-5-5x---5-5-5x--------0--0--9--9--7--7---2---2--2--2-2--2--2-2-2-
D|-5-5-5x---5-5-5x--------0--0---------------------------------------

e|-------------------------------------------------------------------
B|-------------------------------------------------------------------
G|-7-7-7--7--7-7-7-7--11/12\11--7-7-7-7-7--7--7-7--11\9-9-9\7-7-7\6--
D|-7-7-7--7--7-7-7-7------------7-7-7-7-7--7--7-7--------------------
A|-5-5-5--5--5-5-5-5---9/10\9---5-5-5-5-5--5--5-5---9\7-7-7\5-5-5\4--
D|-5-5-5--5--5-5-5-5------------5-5-5-5-5--5--5-5--------------------

e|-------------------------------------------------------------------
B|---------------------2---2--2--3-3--2--2-2-2--7-7-7x----7-7-7x-----
G|-------11-11--9--9---4---4--4--4-4--4--4-4-4--7-7-7x----7-7-7x-----
D|---------------------4---4--4--4-4--4--4-4-4--5-5-5x----5-5-5x-----
A|-0--0---9--9--7--7---2---2--2--2-2--2--2-2-2--5-5-5x----5-5-5x-----
D|-0--0--------------------------------------------------------------

e|-------------------------------------------------------------------
B|-7-7-7-------------------------------------------------------------
G|-7-7-7--6-6-6x---6-6-6x--------------------------------------------
D|-5-5-5--7-7-7x---7-7-7x------------------*-------------------------
A|-5-5-5--4-4-4x---4-4-4x------------------5-------------------------
D|-------------------------------------------------------------------
comments
We did not receive enough feedback on this tab! Please rate:
print report bad tab
1 2 3 4 5
1 comment total.
0 reply
ballasu wrote on June 11 2004, 12:00 am

is this tab 100% corect?

I want to post or [tab]
guest
You may want to rate the tab now too:
select rating
Please do not post tabs as comments. Select "correction" instead!