Oops, an error
Loading. Please wait.

Fighting Tab

ver1
ver1

Intro

Whole song

Interactive

Video

More versions @911Tabs.com
23,132 views 31 this week
10 commentsread comments
1 2 3 4 5
excellent!
x 10
Autoscroll
+/-
esc
set tempo
stop
Contributor
Hey! There's an official Ultimate Guitar app which is ideal
for learning songs when you're away from computer. Get the app
WARNING: You are trying to view
                                    content from Ultimate-Guitar.com
                                    in an unauthorized application,
                                    which is prohibited.

                                    Please use an official Ultimate
                                    Guitar Tabs application for iPhone,
                                    iPad or Android to access legitimate
                                    chords, guitar, bass, and drum tabs
                                    from Ultimate-Guitar.com database.

                                    Type "ultimate guitar tabs" in Apple
                                    App Store's or Android Market's
                                    search to find the application.
Band: yellowcard
CD: Paper walls
Guitar 1: Ryan Key
Guitar 2: Ryan Mendez

Ok i'm setting up the tab to make it easiest for both guitars to read, i think, so
one will be on top and guitar two on the bottom. i'll lable them as it comes up like 
to
and so on. i'll do the whole song to all the way through. well here it is

Intro:
------

Guitar 1
E|-------------------------------------------------------------|
B|-------------------------------------------------------------|
G|-5-5-5-5-------5-5-5-5--------7-7-7-7-------9-9-9------------|
D|-5-5-5-5-------5-5-5-5--------7-7-7-7-------9-9-9---4-4-4----|
A|-3-3-3-3-------3-3-3-3--------5-5-5-5-------7-7-7---5-5-5----|
E|-3-3-3-3-------3-3-3-3--------5-5-5-5-------7-7-7---2-2-2----|

Guitar 2
E|-------------------------------------------------------------|
B|-------------------------------------------------------------|
G|-------------------------------------------------------------|
D|-------------------------------------------------------------|
A|-------------------------------------------------------------|
E|-------------------------------------------------------------|

Guitar 1
E|-------------------------------------------------------------|
B|-------------------------------------------------------------|
G|-5-5-5-5-------5-5-5-5--------7-7-7-7-------9-9-9------------|
D|-5-5-5-5-------5-5-5-5--------7-7-7-7-------9-9-9---4-4-4----|
A|-3-3-3-3-------3-3-3-3--------5-5-5-5-------7-7-7---5-5-5----|
E|-3-3-3-3-------3-3-3-3--------5-5-5-5-------7-7-7---2-2-2----|

Guitar 2
E|-------------------------------------------------------------|
B|-15----15--15--15----15--15---10----10--10--12--12--13--13---|
G|---1212--12--12--1212--12--12---1212--12--12--12--12--12--12-|
D|-------------------------------------------------------------|
A|-------------------------------------------------------------|
E|-------------------------------------------------------------|

Guitar 1
E|-------------------------------------------------------------|
B|-------------------------------------------------------------|
G|-5-5-5-5-------5-5-5-5--------7-7-7-7-------9-9-9------------|
D|-5-5-5-5-------5-5-5-5--------7-7-7-7-------9-9-9---4-4-4----|
A|-3-3-3-3-------3-3-3-3--------5-5-5-5-------7-7-7---5-5-5----|
E|-3-3-3-3-------3-3-3-3--------5-5-5-5-------7-7-7---2-2-2----|

Guitar 2
E|-------------------------------------------------------------|
B|-15----15--15--15-----15--15--12----12--12--10----10----10---|
G|---1212--12--12---1212--12--12--1212--12--12--1212--1212--12-|
D|-------------------------------------------------------------|
A|-------------------------------------------------------------|
E|-------------------------------------------------------------|


Verse:
------

Guitar 1
E|-------------------------------------------------------------|
B|-------------------------------------------------------------|
G|-------------------------------------------------------------|
D|-------------------------------------------------------------|
A|-----------------------------------------------5-5-5-5-5-5-5-|
E|-0-0-0-0-0-0-0-0-0-0-0-0-0-0-0-03-3-3-3-3-3-3-3--------------|

Guitar 2
E|-------------------------------------------------------------|
B|-------------------------------------------------------------|
G|-------------------------------------------------------------|
D|-------------------------------------------------------------|
A|-------------------------------------------------------------|
E|-------------------------------------------------------------|

Guitar 1:
E|-------------------------------------------------------------|
B|-------------------------------------------------------------|
G|-------------------------------------------------------------|
D|-------------------------------------------------------------|
A|------------------------------3-3-3-3-3-3-3-3----------------|
E|-0-0-0-0-0-0-0-0-0-0-0-0-0-0-0---------------5-5-5-5-5-5-5-5-|

Guitar 2
E|-------------------------------------------------------------|
B|-------------------------------------------------------------|
G|-------------------------------------------------------------|
D|-11b---------------------------------------------------------|
A|-------------------------------------------------------------|
E|-------------------------------------------------------------|

Guitar 1
E|-------------------------------------------------------------|
B|-------------------------------------------------------------|
G|-------------------------------------------------------------|
D|-------------------------------------------------------------|
A|-----------------------------------------------5-5-5-5-5-5-5-|
E|-0-0-0-0-0-0-0-0-0-0-0-0-0-0-0-03-3-3-3-3-3-3-3--------------|

Guitar 2
E|-------------------------------------------------------------|
B|-------------------------------------------------------------|
G|-------------------------------------------------------------|
D|-11b---------------------------------------------------------|
A|-------------------------------------------------------------|
E|-------------------------------------------------------------|

Guitar 1:
E|-------------------------------------------------------------|
B|-------------------------------------------------------------|
G|-------------------------------------------------------------|
D|-------------------------------------------------------------|
A|------------------------------3-3-3-3-3-3-3-3----------------|
E|-0-0-0-0-0-0-0-0-0-0-0-0-0-0-0---------------5-5-5-5-5-5-5-5-|

Guitar 2
E|-------------------------------------------------------------|
B|-------------------------------------------------------------|
G|-------------------------------------------------------------|
D|-11b---------------------------------------------------------|
A|-------------------------------------------------------------|
E|-------------------------------------------------------------|


Chorus: x2
-------

Guitar 1
E|-------------------------------------------------------------|
B|-------------------------------------------------------------|
G|-5-5-5-5-5-5-5-55-5-5-5-5-5-5-57-7-7-7-7-7-7-79-9-9-9--------|
D|-5-5-5-5-5-5-5-55-5-5-5-5-5-5-57-7-7-7-7-7-7-79-9-9-94-4-4-4-|
A|-3-3-3-3-3-3-3-33-3-3-3-3-3-3-35-5-5-5-5-5-5-57-7-7-75-5-5-5-|
E|-3-3-3-3-3-3-3-33-3-3-3-3-3-3-35-5-5-5-5-5-5-57-7-7-72-2-2-2-|

Guitar 2
E|-------------------------------------------------------------|
B|-----------------------------------------------------8-8-1010|
G|-5-5-5-5-5-5-5-55-5-5-5-5-5-5-57-7-7-7-7-7-7-79-9-9-9x-x-x-x-|
D|-x-x-x-x-x-x-x-xx-x-x-x-x-x-x-xx-x-x-x-x-x-x-xx-x-x-x5-5-7-7-|
A|-3-3-3-3-3-3-3-33-3-3-3-3-3-3-35-5-5-5-5-5-5-57-7-7-7--------|
E|-------------------------------------------------------------|


Post Chorus:
------------

Guitar 1
E|--------------------------------------|
B|--------------------------------------|
G|-5-5-5-5-------5-5-5-5--------7-7-7-7-|
D|-5-5-5-5-------5-5-5-5--------7-7-7-7-|
A|-3-3-3-3-------3-3-3-3--------5-5-5-5-|
E|-3-3-3-3-------3-3-3-3--------5-5-5-5-|

Guitar 2
E|--------------------------------------|
B|--------------------------------------|
G|-5-5-5-5-------5-5-5-5--------7-7-7-7-|
D|-x-x-x-x-------x-x-x-x--------x-x-x-x-|
A|-3-3-3-3-------3-3-3-3--------5-5-5-5-|
E|--------------------------------------|


Verse:
------

Guitar 1
E|-------------------------------------------------------------|
B|-------------------------------------------------------------|
G|-------------------------------------------------------------|
D|-------------------------------------------------------------|
A|-----------------------------------------------5-5-5-5-5-5-5-|
E|-0-0-0-0-0-0-0-0-0-0-0-0-0-0-0-03-3-3-3-3-3-3-3--------------|

Guitar 2
E|-------------------------------------------------------------|
B|-------------------------------------------------------------|
G|-------------------------------------------------------------|
D|-11b---------------------------------------------------------|
A|-------------------------------------------------------------|
E|-------------------------------------------------------------|

Guitar 1:
E|-------------------------------------------------------------|
B|-------------------------------------------------------------|
G|-------------------------------------------------------------|
D|-------------------------------------------------------------|
A|------------------------------3-3-3-3-3-3-3-3----------------|
E|-0-0-0-0-0-0-0-0-0-0-0-0-0-0-0---------------5-5-5-5-5-5-5-5-|

Guitar 2
E|-------------------------------------------------------------|
B|-------------------------------------------------------------|
G|-------------------------------------------------------------|
D|-11b---------------------------------------------------------|
A|-------------------------------------------------------------|
E|-------------------------------------------------------------|

Guitar 1
E|-------------------------------------------------------------|
B|-------------------------------------------------------------|
G|-------------------------------------------------------------|
D|-------------------------------------------------------------|
A|-----------------------------------------------5-5-5-5-5-5-5-|
E|-0-0-0-0-0-0-0-0-0-0-0-0-0-0-0-03-3-3-3-3-3-3-3--------------|

Guitar 2
E|--------------------------------------------------------------|
B|--------------------------------------------------------------|
G|--------------------------------------------------------------|
D|-11b-10b-11b-10b-11b-10b-11b-10b11b-10b-11b-10b11b-10b-11b-10b|
A|--------------------------------------------------------------|
E|--------------------------------------------------------------|

Guitar 1:
E|-------------------------------------------------------------|
B|-------------------------------------------------------------|
G|-------------------------------------------------------------|
D|-------------------------------------------------------------|
A|------------------------------3-3-3-3-3-3-3-3----------------|
E|-0-0-0-0-0-0-0-0-0-0-0-0-0-0-0---------------5-5-5-5-5-5-5-5-|

Guitar 2
E|--------------------------------------------------------------|
B|--------------------------------------------------------------|
G|--------------------------------------------------------------|
D|-11b-10b-11b-10b-11b-10b-11b-10b11b-10b-11b-10b11b-10b-11b-10b|
A|--------------------------------------------------------------|
E|--------------------------------------------------------------|


Chorus: x2
-------

Guitar 1
E|-------------------------------------------------------------|
B|-------------------------------------------------------------|
G|-5-5-5-5-5-5-5-55-5-5-5-5-5-5-57-7-7-7-7-7-7-79-9-9-9--------|
D|-5-5-5-5-5-5-5-55-5-5-5-5-5-5-57-7-7-7-7-7-7-79-9-9-94-4-4-4-|
A|-3-3-3-3-3-3-3-33-3-3-3-3-3-3-35-5-5-5-5-5-5-57-7-7-75-5-5-5-|
E|-3-3-3-3-3-3-3-33-3-3-3-3-3-3-35-5-5-5-5-5-5-57-7-7-72-2-2-2-|

Guitar 2
E|-------------------------------------------------------------|
B|-----------------------------------------------------8-8-1010|
G|-5-5-5-5-5-5-5-55-5-5-5-5-5-5-57-7-7-7-7-7-7-79-9-9-9x-x-x-x-|
D|-x-x-x-x-x-x-x-xx-x-x-x-x-x-x-xx-x-x-x-x-x-x-xx-x-x-x5-5-7-7-|
A|-3-3-3-3-3-3-3-33-3-3-3-3-3-3-35-5-5-5-5-5-5-57-7-7-7--------|
E|-------------------------------------------------------------|

Intro:
------

Guitar 1
E|-------------------------------------------------------------|
B|-------------------------------------------------------------|
G|-5-5-5-5-------5-5-5-5--------7-7-7-7-------9-9-9------------|
D|-5-5-5-5-------5-5-5-5--------7-7-7-7-------9-9-9---4-4-4----|
A|-3-3-3-3-------3-3-3-3--------5-5-5-5-------7-7-7---5-5-5----|
E|-3-3-3-3-------3-3-3-3--------5-5-5-5-------7-7-7---2-2-2----|

Guitar 2
E|-------------------------------------------------------------|
B|-15----15--15--15----15--15---10----10--10--12--12--13--13---|
G|---1212--12--12--1212--12--12---1212--12--12--12--12--12--12-|
D|-------------------------------------------------------------|
A|-------------------------------------------------------------|
E|-------------------------------------------------------------|

Guitar 1
E|-------------------------------------------------------------|
B|-------------------------------------------------------------|
G|-5-5-5-5-------5-5-5-5--------7-7-7-7-------9-9-9------------|
D|-5-5-5-5-------5-5-5-5--------7-7-7-7-------9-9-9---4-4-4----|
A|-3-3-3-3-------3-3-3-3--------5-5-5-5-------7-7-7---5-5-5----|
E|-3-3-3-3-------3-3-3-3--------5-5-5-5-------7-7-7---2-2-2----|

Guitar 2
E|-------------------------------------------------------------|
B|-15----15--15--15-----15--15--12----12--12--10----10----10---|
G|---1212--12--12---1212--12--12--1212--12--12--1212--1212--12-|
D|-------------------------------------------------------------|
A|-------------------------------------------------------------|
E|-------------------------------------------------------------|


Bridge:
-------

Guitar 1
E|-------------------------------------------------------------|
B|-------------------------------------------------------------|
G|-5~----------------------------------------------------------|
D|-5~----------------------------------------------------------|
A|-3~----------------------------------------------------------|
E|-------------------------------------------------------------|

Guitar 2
E|-------------------------------------------------------------|
B|-------------------------------------------------------------|
G|-121212121111-1414141414141414-121212121111-1616161616161616-|
D|-x-x-x-x-xxxx-x-x-x-x-x-x-x-x--x-x-x-x-xxxx-x-x-x-x-x-x-x-x--|
A|-101010109999-1212121212121212-101010109999-1414141414141414-|
E|-------------------------------------------------------------|


Interlude: (play it over and over tell it ends)
----------

Guitar 1
E|-------------------------------------------------------------|
B|-------------------------------------------------------------|
G|-------------------------------------------------------------|
D|-2-2-2-2-2-2-2-25-5-5-5-5-5-5-55-5-5-5-5-5-5-55-5-5-5-5-5-5-5|
A|-2-2-2-2-2-2-2-23-3-3-3-3-3-3-33-3-3-3-3-3-3-35-5-5-5-5-5-5-5|
E|-0-0-0-0-0-0-0-03-3-3-3-3-3-3-3---------------3-3-3-3-3-3-3-3|

Guitar 2
E|-------------------------------------------------------------|
B|-------------------------------------------------------------|
G|-121212121111-1414141414141414-121212121111-1616161616161616-|
D|-x-x-x-x-xxxx-x-x-x-x-x-x-x-x--x-x-x-x-xxxx-x-x-x-x-x-x-x-x--|
A|-101010109999-1212121212121212-101010109999-1414141414141414-|
E|-------------------------------------------------------------|

Guitar 1
E|-------------------------------------------------------------|
B|-------------------------------------------------------------|
G|-------------------------------------------------------------|
D|-2-2-2-2-2-2-2-25-5-5-5-5-5-5-55-5-5-5-5-5-5-57-7-7-7-7-7-7-7|
A|-2-2-2-2-2-2-2-23-3-3-3-3-3-3-33-3-3-3-3-3-3-35-5-5-5-5-5-5-5|
E|-0-0-0-0-0-0-0-03-3-3-3-3-3-3-3---------------5-5-5-5-5-5-5-5|

Interlude:
----------

Guitar 1
E|-------------------------------------------------------------|
B|-------------------------------------------------------------|
G|-5~----------------------------------------------------------|
D|-5~----------------------------------------------------------|
A|-3~----------------------------------------------------------|
E|-------------------------------------------------------------|

Guitar 2
E|-------------------------------------------------------------|
B|-------------------------------------------------------------|
G|-5~----------------------------------------------------------|
D|-5~----------------------------------------------------------|
A|-3~----------------------------------------------------------|
E|-------------------------------------------------------------|


Chorus: x2
-------

Guitar 1
E|-------------------------------------------------------------|
B|-------------------------------------------------------------|
G|-5-5-5-5-5-5-5-55-5-5-5-5-5-5-57-7-7-7-7-7-7-79-9-9-9--------|
D|-5-5-5-5-5-5-5-55-5-5-5-5-5-5-57-7-7-7-7-7-7-79-9-9-94-4-4-4-|
A|-3-3-3-3-3-3-3-33-3-3-3-3-3-3-35-5-5-5-5-5-5-57-7-7-75-5-5-5-|
E|-3-3-3-3-3-3-3-33-3-3-3-3-3-3-35-5-5-5-5-5-5-57-7-7-72-2-2-2-|

Guitar 2
E|-------------------------------------------------------------|
B|-----------------------------------------------------8-8-1010|
G|-5-5-5-5-5-5-5-55-5-5-5-5-5-5-57-7-7-7-7-7-7-79-9-9-9x-x-x-x-|
D|-x-x-x-x-x-x-x-xx-x-x-x-x-x-x-xx-x-x-x-x-x-x-xx-x-x-x5-5-7-7-|
A|-3-3-3-3-3-3-3-33-3-3-3-3-3-3-35-5-5-5-5-5-5-57-7-7-7--------|
E|-------------------------------------------------------------|

Outro:

Guitar 1
E|-------------------------------------------------------------|
B|-------------------------------------------------------------|
G|-5-5-5-5-------5-5-5-5--------7-7-7-7-------9-9-9------------|
D|-5-5-5-5-------5-5-5-5--------7-7-7-7-------9-9-9---4-4-4----|
A|-3-3-3-3-------3-3-3-3--------5-5-5-5-------7-7-7---5-5-5----|
E|-3-3-3-3-------3-3-3-3--------5-5-5-5-------7-7-7---2-2-2----|

Guitar 2
E|-------------------------------------------------------------|
B|-15----15--15--15----15--15---10----10--10--12--12--13--13---|
G|---1212--12--12--1212--12--12---1212--12--12--12--12--12--12-|
D|-------------------------------------------------------------|
A|-------------------------------------------------------------|
E|-------------------------------------------------------------|

Guitar 1
E|-------------------------------------------------------------|
B|-------------------------------------------------------------|
G|-5-5-5-5-------5-5-5-5--------7-7-7-7-------9-9-9------------|
D|-5-5-5-5-------5-5-5-5--------7-7-7-7-------9-9-9---4-4-4----|
A|-3-3-3-3-------3-3-3-3--------5-5-5-5-------7-7-7---5-5-5----|
E|-3-3-3-3-------3-3-3-3--------5-5-5-5-------7-7-7---2-2-2----|

Guitar 2
E|-------------------------------------------------------------|
B|-15----15--15--15-----15--15--12----12--12--10----10----10---|
G|---1212--12--12---1212--12--12--1212--12--12--1212--1212--12-|
D|-------------------------------------------------------------|
A|-------------------------------------------------------------|
E|-------------------------------------------------------------|

Guitar 1
E|-------------------------------------------------------------|
B|-------------------------------------------------------------|
G|-5-5-5-5-------5-5-5-5--------7-7-7-7-------9-9-9------------|
D|-5-5-5-5-------5-5-5-5--------7-7-7-7-------9-9-9---4-4-4----|
A|-3-3-3-3-------3-3-3-3--------5-5-5-5-------7-7-7---5-5-5----|
E|-3-3-3-3-------3-3-3-3--------5-5-5-5-------7-7-7---2-2-2----|

Guitar 2
E|-------------------------------------------------------------|
B|----------------------------------------------------8-8-10---|
G|-5-5-5-5-------5-5-5-5--------7-7-7-7-------9-9-9---x-x-x----|
D|-x-x-x-x-------x-x-x-x--------x-x-x-x-------x-x-x---5-5-7----|
A|-3-3-3-3-------3-3-3-3--------5-5-5-5-------7-7-7------------|
E|-------------------------------------------------------------|

Guitar 1
E|-------------------------------------------------------------|
B|-------------------------------------------------------------|
G|-5-5-5-5-------5-5-5-5--------7-7-7-7-------9-9-9------------|
D|-5-5-5-5-------5-5-5-5--------7-7-7-7-------9-9-9---4-4-4----|
A|-3-3-3-3-------3-3-3-3--------5-5-5-5-------7-7-7---5-5-5----|
E|-3-3-3-3-------3-3-3-3--------5-5-5-5-------7-7-7---2-2-2----|

Guitar 2
E|-------------------------------------------------------------|
B|----------------------------------------------------8-8-10---|
G|-5-5-5-5-------5-5-5-5--------7-7-7-7-------9-9-9---x-x-x----|
D|-x-x-x-x-------x-x-x-x--------x-x-x-x-------x-x-x---5-5-7----|
A|-3-3-3-3-------3-3-3-3--------5-5-5-5-------7-7-7------------|
E|-------------------------------------------------------------|

Guitar 1
E|-------------------------------------------------------------|
B|-------------------------------------------------------------|
G|-5-5-5-5-------5-5-5-5--------7-7-7-7-------9-9-9------------|
D|-5-5-5-5-------5-5-5-5--------7-7-7-7-------9-9-9---4-4-4----|
A|-3-3-3-3-------3-3-3-3--------5-5-5-5-------7-7-7---5-5-5----|
E|-3-3-3-3-------3-3-3-3--------5-5-5-5-------7-7-7---2-2-2----|

Guitar 2
E|-------------------------------------------------------------|
B|-15----15--15--15----15--15---10----10--10--12--12--13--13---|
G|---1212--12--12--1212--12--12---1212--12--12--12--12--12--12-|
D|-------------------------------------------------------------|
A|-------------------------------------------------------------|
E|-------------------------------------------------------------|

Guitar 1
E|-------------------------------------------------------------|
B|-------------------------------------------------------------|
G|-5-5-5-5-------5-5-5-5--------7-7-7-7-------9-9-9------------|
D|-5-5-5-5-------5-5-5-5--------7-7-7-7-------9-9-9---4-4-4----|
A|-3-3-3-3-------3-3-3-3--------5-5-5-5-------7-7-7---5-5-5----|
E|-3-3-3-3-------3-3-3-3--------5-5-5-5-------7-7-7---2-2-2----|

Guitar 2
E|-------------------------------------------------------------|
B|-15----15--15--15-----15--15--12----12--12--10----10----10---|
G|---1212--12--12---1212--12--12--1212--12--12--1212--1212--12-|
D|-------------------------------------------------------------|
A|-------------------------------------------------------------|
E|-------------------------------------------------------------|

umm yeah thats about it,i know its prolly not even close to 100% right, well i can hear
is a lot more stuff going on in the background of the verse, i cant quite tab it out and
know the intro is off, but hey at least i gave you something, so hopefully someone who 
really good at tabs can like go off mine and help me out, you guys should like give me
decent raiting cuz um yeah its the best out so far well comment if you guys have 
and stuff
comments
print report bad tab
10 comments total. Showing first comments.
+1 reply
Jose Montoya wrote on September 8 2007, 01:15 pm

cool, but wut time is the bridge?...im confused...help?

+1 reply
gortex99 wrote on September 26 2007, 07:53 pm

the bridge goes around for 2 times and it starts at 1:37, and its a bit slower than the rest of the song, thats all.
anyway...great tab amerminority, i think that the bridge is a tad off...but, o well, its the best tab on this song so far!
im voting 5 stars

0 reply
Sighface wrote on January 18 2008, 04:36 am

What tuning is this in? Drop D?

I want to post or [tab]
guest
You may want to rate the tab now too:
select rating
Please do not post tabs as comments. Select "correction" instead!