Oops, an error
Loading. Please wait.

For You And Your Denial Tab

ver3
ver3

Solo

Whole song

More versions @911Tabs.com
12,780 views 48 this week
2 commentsread comments
1 2 3 4 5
excellent!
x 7
Autoscroll
+/-
esc
set tempo
stop
Contributor
Difficulty
Tuning
intermediate
D A D G B E
WARNING: You are trying to view
                                    content from Ultimate-Guitar.com
                                    in an unauthorized application,
                                    which is prohibited.

                                    Please use an official Ultimate
                                    Guitar Tabs application for iPhone,
                                    iPad or Android to access legitimate
                                    chords, guitar, bass, and drum tabs
                                    from Ultimate-Guitar.com database.

                                    Type "ultimate guitar tabs" in Apple
                                    App Store's or Android Market's
                                    search to find the application.
-------------------------------------------------------------------------------
                    FOR YOU, AND YOUR DENIAL - Yellowcard
-------------------------------------------------------------------------------
Tabbed by: Anthinator

Tuning: D A D G b e

-=Guitar One=- (Ryan Mendez)

INTRO:
e|---------------------------------------------------------------------------------|
B|---------------------------------------------------------------------------------|
G|---------------------------------------------------------------------------------|
D|-9999999999999-11-11-11-0000000000000000-7777777777777777-5555-5-x-555555555-----|
A|-9999999999999-12-12-12-0000000000000000-7777777777777777-5555-5-x-555555555-----|
D|-9999999999999-11-11-11-0000000000000000-7777777777777777-5555-5-x-555555555-----|

VERSE:
e|---------------------------------------------------------------------------------|
B|---------------------------------------------------------------------------------|
G|---------------------------------------------------------------------------------|
D|-12-12-12-12-12-12-12-12-12-12-12-12-11-11-11-11-12-12-12-12-12-12-12-12-12------|
A|---------------------------------------------------------------------------------|
D|---------------------------------------------------------------------------------|

e|---------------------------------------------------------------------------------|
B|---------------------------------------------------------------------------------|
G|----11----11-14-11---------------------------------------------------------------|
D|-12----12----------12-11-11-11-11-11-11-11-11-11-11-11-11-11-11-11-11-9-9-9-9-9--|
A|---------------------------------------------------------------------------------|
D|---------------------------------------------------------------------------------|

e|---------------------------------------------------------------------------------|
B|-------------------10--------------------------------10-10-10--------------------|
G|-----------11---11----11---------------------------------------------------------|
D|-9-9-9-9-9----9----------9-9-9-9-9-9-9-9-9-9-9-9-9-9----------7-7-7-7-7-7-7-7----|
A|---------------------------------------------------------------------------------|
D|---------------------------------------------------------------------------------|

e|---------------------------------------------------------------------------------|
B|---------------------------------------------------------------------------------|
G|---------------11----------------------------------------------------------------|
D|-7-7-9-12-9-12----12-9-7-7-7-7-7-7-7-7-7-7-7-7-7-7-7-7---------------------------|
A|-------------------------------------------------------10-10-10-10-10-10-10-10---|
D|---------------------------------------------------------------------------------|

e|---------------------------------------------------------------------------------|
B|---------------------------------------------------------------------------------|
G|-----------------11-11-11--------------------------------------------------------|
D|-------9-12-9-12-12-12-12--------------------------------------------------------|
A|-10-10---------------------------------------------------------------------------|
D|---------------------------------------------------------------------------------|

CHORUS:
e|---------------------------------------------------------------------------------|
B|---------------------------------------------------------------------------------|
G|---------------------------------------------------------------------------------|
D|-9999999999999999-0000000000000000-5555555555555555--9999-555-7777-000-----------|
A|-9999999999999999-0000000000000000-5555555555555555--9999-555-7777-000-----------|
D|-9999999999999999-0000000000000000-5555555555555555--9999-555-7777-000-----------|

e|---------------------------------------------------------------------------------|
B|---------------------------------------------------------------------------------|
G|---------------------------------------------------------------------------------|
D|-9999999999999999-0000000000000000-5555555555555555--9999-555-7777-000-----------|
A|-9999999999999999-0000000000000000-5555555555555555--9999-555-7777-000-----------|
D|-9999999999999999-0000000000000000-5555555555555555--9999-555-7777-000-----------|
                                                                     ... 

INTRO:
e|---------------------------------------------------------------------------------|
B|---------------------------------------------------------------------------------|
G|---------------------------------------------------------------------------------|
D|-9999999999999-11-11-11-0000000000000000-7777777777777777-5555-5-x-555555555-----|
A|-9999999999999-12-12-12-0000000000000000-7777777777777777-5555-5-x-555555555-----|
D|-9999999999999-11-11-11-0000000000000000-7777777777777777-5555-5-x-555555555-----|

VERSE:
e|---------------------------------------------------------------------------------|
B|---------------------------------------------------------------------------------|
G|---------------------------------------------------------------------------------|
D|-12-12-12-12-12-12-12-12-12-12-12-12-11-11-11-11-12-12-12-12-12-12-12-12-12------|
A|---------------------------------------------------------------------------------|
D|---------------------------------------------------------------------------------|

e|---------------------------------------------------------------------------------|
B|---------------------------------------------------------------------------------|
G|----11----11-14-11---------------------------------------------------------------|
D|-12----12----------12-11-11-11-11-11-11-11-11-11-11-11-11-11-11-11-11-9-9-9-9-9--|
A|---------------------------------------------------------------------------------|
D|---------------------------------------------------------------------------------|

e|---------------------------------------------------------------------------------|
B|-------------------10--------------------------------10-10-10--------------------|
G|-----------11---11----11---------------------------------------------------------|
D|-9-9-9-9-9----9----------9-9-9-9-9-9-9-9-9-9-9-9-9-9----------7-7-7-7-7-7-7-7----|
A|---------------------------------------------------------------------------------|
D|---------------------------------------------------------------------------------|

e|---------------------------------------------------------------------------------|
B|---------------------------------------------------------------------------------|
G|---------------11----------------------------------------------------------------|
D|-7-7-9-12-9-12----12-9-7-7-7-7-7-7-7-7-7-7-7-7-7-7-7-7---------------------------|
A|-------------------------------------------------------10-10-10-10-10-10-10-10---|
D|---------------------------------------------------------------------------------|

e|---------------------------------------------------------------------------------|
B|---------------------------------------------------------------------------------|
G|-----------------11-------------------------------------------11-11-11-----------|
D|-------9-12-9-12----12-9----------------------------9-12-9-12-12-12-12-----------|
A|-10-10-------------------12-12-12-12-12-12-12-12-12------------------------------|
D|---------------------------------------------------------------------------------|

CHORUS:
e|---------------------------------------------------------------------------------|
B|---------------------------------------------------------------------------------|
G|---------------------------------------------------------------------------------|
D|-9999999999999999-0000000000000000-5555555555555555--9999-555-7777-000-----------|
A|-9999999999999999-0000000000000000-5555555555555555--9999-555-7777-000-----------|
D|-9999999999999999-0000000000000000-5555555555555555--9999-555-7777-000-----------|

e|---------------------------------------------------------------------------------|
B|---------------------------------------------------------------------------------|
G|---------------------------------------------------------------------------------|
D|-9999999999999999-0000000000000000-5555555555555555--9999-555-7777-000-----------|
A|-9999999999999999-0000000000000000-5555555555555555--9999-555-7777-000-----------|
D|-9999999999999999-0000000000000000-5555555555555555--9999-555-7777-000-----------|

e|---------------------------------------------------------------------------------|
B|---------------------------------------------------------------------------------|
G|---------------------------------------------------------------------------------|
D|-9999-555-7777-000---------------------------------------------------------------|
A|-9999-555-7777-000---------------------------------------------------------------|
D|-9999-555-7777-000---------------------------------------------------------------|
                 ...

BRIDGE: 
e|---------------------------------------------------------------------------------|
B|---------------------------------------------------------------------------------|
G|---------------------------------------------------------------------------------|
D|-----------------------------5555555555555555------------------------------------|
A|-----------------------------5555555555555555------------------------------------|
D|-----------------------------5555555555555555------------------------------------|
  |--------------------------|                  |--------------------------|
          guitar one                                     guitar one

e|---------------------------------------------------------------------------------|
B|---------------------------------------------------------------------------------|
G|----------------------11-11-11-11-11-11-11-11-11-11-11-11-7-7-7-7-12-12-12-12----|
D|-----5555555555555555-x--x--x--x--x--x--x--x--x--x--x--x--x-x-x-x-x--x--x--x-----|
A|-----5555555555555555-9--9--9--9--9--9--9--9--9--9--9--9--5-5-5-5-10-10-10-10----|
D|-12/-5555555555555555------------------------------------------------------------|

BRIDGE CONT'D: 
e|---------------------------------------------------------------------------------|
B|---------------------------------------------------------------------------------|
G|-12-12-12-12-11-11-11-11-11-11-11-11-7-7-7-9-9-9-11-11-11-14--14--14-------------|
D|-x--x--x--x--x--x--x--x--x--x--x--x--x-x-x-x-x-x-x--x--x--x---x---x--------------|
A|-10-10-10-10-9--9--9--9--9--9--9--9--5-5-5-7-7-7-9--9--9--12--12--12-------------|
D|---------------------------------------------------------------------------------|

e|---------------------------------------------------------------------------------|
B|---------------------------------------------------------------------------------|
G|------------------11-11-11-11-11-11-11-11-11-11-11-11-7-7-7-7-12-12-12-12--------|
D|-5555555555555555-x--x--x--x--x--x--x--x--x--x--x--x--x-x-x-x-x--x--x--x---------|
A|-5555555555555555-9--9--9--9--9--9--9--9--9--9--9--9--5-5-5-5-10-10-10-10--------|
D|-5555555555555555----------------------------------------------------------------|
 
e|---------------------------------------------------------------------------------|
B|---------------------------------------------------------------------------------|
G|-12-12-12-12-11-11-11-11-11-11-11-11-7-7-7-9-9-9-11-11-11-14--14--14-------------|
D|-x--x--x--x--x--x--x--x--x--x--x--x--x-x-x-x-x-x-x--x--x--x---x---x--------------|
A|-10-10-10-10-9--9--9--9--9--9--9--9--5-5-5-7-7-7-9--9--9--12--12--12-------------|
D|---------------------------------------------------------------------------------|

CHORUS:
e|---------------------------------------------------------------------------------|
B|---------------------------------------------------------------------------------|
G|---------------------------------------------------------------------------------|
D|-9999-555-7777-000---------------------------------------------------------------|
A|-9999-555-7777-000---------------------------------------------------------------|
D|-9999-555-7777-000---------------------------------------------------------------|

e|---------------------------------------------------------------------------------|
B|---------------------------------------------------------------------------------|
G|---------------------------------------------------------------------------------|
D|-9999999999999999-0000000000000000-5555555555555555--9999-555-7777-000-----------|
A|-9999999999999999-0000000000000000-5555555555555555--9999-555-7777-000-----------|
D|-9999999999999999-0000000000000000-5555555555555555--9999-555-7777-000-----------|

e|---------------------------------------------------------------------------------|
B|-------------------------------------------------------------14-14---------------|
G|-------------------------------------------------------------------14-14---------|
D|-9999999999999999-0000000000000000-5555555555555555-12-12-12---------------------|
A|-9999999999999999-0000000000000000-5555555555555555------------------------------|
D|-9999999999999999-0000000000000000-5555555555555555------------------------------|
                                                      .  .  .

e|---------------------------------------------------------------------------------|
B|---------------------------------------------------------------------------------|
G|-------14-14-------14-14-------11----11-14-11-11-------11----11-14-11-11---------|
D|-12-12-------11-11-------12-12----12-------------12-12----12---------------------|
A|---------------------------------------------------------------------------------|
D|---------------------------------------------------------------------------------|
   .  .        .  .        .  .                    .  .

e|---------------------------------------------------------------------------------|
B|----------14-14------------------------------------------------------------------|
G|----------------14-14-------14-14-------14-14-------11----11-14-11-11-------11---|
D|-12-12-12-------------12-12-------11-11-------12-12----12-------------12-12------|
A|---------------------------------------------------------------------------------|
D|---------------------------------------------------------------------------------|
   .  .  .              .  .        .  .        .  .                    .  .

e|---------------------------------------------------------------------------------|
B|---------------------------------------------------------------------------------|
G|----11-14-11-11------------------------------------------------------------------|
D|-12------------------------------------------------------------------------------|
A|---------------------------------------------------------------------------------|
D|---------------------------------------------------------------------------------|

OUTRO:
e|---------------------------------------------------------------------------------|
B|----------14-14------------------------------------------------------------------|
G|----------------14-14-------14-14-------14-14-------11----11-14-11-11------------|
D|-12-12-12-------------12-12-------11-11-------12-12----12-------------12-12------|
A|---------------------------------------------------------------------------------|
D|---------------------------------------------------------------------------------|
   .  .  .              .  .        .  .        .  .                    .  .

e|---------------------------------------------------------------------------------|
B|---------------------------------------------------------------------------------|
G|-11----11-14---------------------------------------------------------------------|
D|----12-------11-11-12~-----------------------------------------------------------|
A|---------------------------------------------------------------------------------|
D|---------------------------------------------------------------------------------|



-=Guitar Two=- (Ryan Key)

INTRO:
e|---------------------------------------------------------------------------------|
B|---------------------------------------------------------------------------------|
G|---------------------------------------------------------------------------------|
D|-9999999999999-11-11-11-0000000000000000-7777777777777777-5555-5-x-555555555-----|
A|-9999999999999-12-12-12-0000000000000000-7777777777777777-5555-5-x-555555555-----|
D|-9999999999999-11-11-11-0000000000000000-7777777777777777-5555-5-x-555555555-----|

VERSE:
e|---------------------------------------------------------------------------------|
B|---------------------------------------------------------------------------------|
G|---------------------------------------------------------------------------------|
D|-44-444-444-44477----------------------------------------------------------------|
A|-22-222-222-22244-00-000-000-00000-77-777-777-77777-55-555-555555555-------------|
D|------------------00-000-000-00000-77-777-777-77777-55-555-555555555-------------|
   .. ... ... ..... .. ... ... ..... .. ... ... ..... .. ... ..       

CHORUS:
e|---------------------------------------------------------------------------------|
B|---------------------------------------------------------------------------------|
G|---------------------------------------------------------------------------------|
D|-9999999999999999-0000000000000000-5555555555555555--9999-555-7777-000-----------|
A|-9999999999999999-0000000000000000-5555555555555555--9999-555-7777-000-----------|
D|-9999999999999999-0000000000000000-5555555555555555--9999-555-7777-000-----------|

e|---------------------------------------------------------------------------------|
B|---------------------------------------------------------------------------------|
G|---------------------------------------------------------------------------------|
D|-9999999999999999-0000000000000000-5555555555555555--9999-555-7777-000-----------|
A|-9999999999999999-0000000000000000-5555555555555555--9999-555-7777-000-----------|
D|-9999999999999999-0000000000000000-5555555555555555--9999-555-7777-000-----------|
                                                                     ... 

INTRO:
e|---------------------------------------------------------------------------------|
B|---------------------------------------------------------------------------------|
G|---------------------------------------------------------------------------------|
D|-9999999999999-11-11-11-0000000000000000-7777777777777777-5555-5-x-555555555-----|
A|-9999999999999-12-12-12-0000000000000000-7777777777777777-5555-5-x-555555555-----|
D|-9999999999999-11-11-11-0000000000000000-7777777777777777-5555-5-x-555555555-----|

VERSE:
e|---------------------------------------------------------------------------------|
B|---------------------------------------------------------------------------------|
G|---------------------------------------------------------------------------------|
D|-44-444-444-44477----------------------------------------------------------------|
A|-22-222-222-22244-00-000-000-00000-77-777-777-77777-55-555-555555555-------------|
D|------------------00-000-000-00000-77-777-777-77777-55-555-555555555-------------|
   .. ... ... ..... .. ... ... ..... .. ... ... ..... .. ... ..       

e|---------------------------------------------------------------------------------|
B|---------------------------------------------------------------------------------|
G|---------------------------------------------------------------------------------|
D|-44-444-444-44477----------------------------------------------------------------|
A|-22-222-222-22244-00-000-000-00000-77-777-777-77777-55-555-555-55555-------------|
D|------------------00-000-000-00000-77-777-777-77777-55-555-555-55555-------------|


e|---------------------------------------------------------------------------------|
B|---------------------------------------------------------------------------------|
G|---------------------------------------------------------------------------------|
D|---------------------------------------------------------------------------------|
A|-77-777-777777777----------------------------------------------------------------|
D|-77-777-777777777----------------------------------------------------------------|

CHORUS:
e|---------------------------------------------------------------------------------|
B|---------------------------------------------------------------------------------|
G|---------------------------------------------------------------------------------|
D|-9999999999999999-0000000000000000-5555555555555555--9999-555-7777-000-----------|
A|-9999999999999999-0000000000000000-5555555555555555--9999-555-7777-000-----------|
D|-9999999999999999-0000000000000000-5555555555555555--9999-555-7777-000-----------|

e|---------------------------------------------------------------------------------|
B|---------------------------------------------------------------------------------|
G|---------------------------------------------------------------------------------|
D|-9999999999999999-0000000000000000-5555555555555555--9999-555-7777-000-----------|
A|-9999999999999999-0000000000000000-5555555555555555--9999-555-7777-000-----------|
D|-9999999999999999-0000000000000000-5555555555555555--9999-555-7777-000-----------|

e|---------------------------------------------------------------------------------|
B|---------------------------------------------------------------------------------|
G|---------------------------------------------------------------------------------|
D|-9999-555-7777-000---------------------------------------------------------------|
A|-9999-555-7777-000---------------------------------------------------------------|
D|-9999-555-7777-000---------------------------------------------------------------|
                 ...

BRIDGE: 2X
e|---------------------------------------------------------------------------------|
B|---------------------------------------------------------------------------------|
G|-----4-----6------7------11------------------------------------------------------|
D|---0-----0------0------0-----5555555555555555------------------------------------|
A|-2-----4------5------9-------5555555555555555------------------------------------|
D|-----------------------------5555555555555555------------------------------------|

BRIDGE CONT'D:
e|---------------------------------------------------------------------------------|
B|---------------------------------------------------------------------------------|
G|-----------------------------------444-666-777-11-11-11--------------------------|
D|-444-444-44444444-222-222-22222222-xxx-xxx-xxx-x--x--x---5555555555555555--------|
A|-555-555-55555555-222-222-22222222-222-444-555-9--9--9---5555555555555555--------|
D|-444-444-44444444-222-222-22222222-----------------------5555555555555555--------|

e|---------------------------------------------------------------------------------|
B|---------------------------------------------------------------------------------|
G|-----------------------------------444-666-777-11-11-11--------------------------|
D|-444-444-44444444-222-222-22222222-xxx-xxx-xxx-x--x--x---------------------------|
A|-555-555-55555555-222-222-22222222-222-444-555-9--9--9---------------------------|
D|-444-444-44444444-222-222-22222222-----------------------------------------------|

e|---------------------------------------------------------------------------------|
B|---------------------------------------------------------------------------------|
G|---------------------------------------------------------------------------------|
D|---------------------------------------------------------------------------------|
A|-9-9-9999-99-9999-0-0-0000-00-0000-5~--------------------------------------------|
D|-9-9-9999-99-9999-0-0-0000-00-0000-5~--------------------------------------------|

CHORUS:
e|---------------------------------------------------------------------------------|
B|---------------------------------------------------------------------------------|
G|---------------------------------------------------------------------------------|
D|-9999-555-7777-000---------------------------------------------------------------|
A|-9999-555-7777-000---------------------------------------------------------------|
D|-9999-555-7777-000---------------------------------------------------------------|

e|---------------------------------------------------------------------------------|
B|---------------------------------------------------------------------------------|
G|---------------------------------------------------------------------------------|
D|-9999999999999999-0000000000000000-5555555555555555--9999-555-7777-000-----------|
A|-9999999999999999-0000000000000000-5555555555555555--9999-555-7777-000-----------|
D|-9999999999999999-0000000000000000-5555555555555555--9999-555-7777-000-----------|

e|---------------------------------------------------------------------------------|
B|---------------------------------------------------------------------------------|
G|---------------------------------------------------------------------------------|
D|-9999999999999999-0000000000000000-5555555555555555--9999-555-7777-000-----------|
A|-9999999999999999-0000000000000000-5555555555555555--9999-555-7777-000-----------|
D|-9999999999999999-0000000000000000-5555555555555555--9999-555-7777-000-----------|

e|---------------------------------------------------------------------------------|
B|---------------------------------------------------------------------------------|
G|---------------------------------------------------------------------------------|
D|-9999-555-7777-000--9999-555-7777-000--9999-555-7777-000-------------------------|
A|-9999-555-7777-000--9999-555-7777-000--9999-555-7777-000-------------------------|
D|-9999-555-7777-000--9999-555-7777-000--9999-555-7777-000-------------------------|

OUTRO:
e|---------------------------------------------------------------------------------|
B|----------10-10-10---------------------------------------------------------------|
G|-------------------11-11-------9-9-------------------------11--------------------|
D|-12-12-12----------------12-12-----12-12-11-11-9-9-12-9-12----12-12--------------|
A|---------------------------------------------------------------------------------|
D|---------------------------------------------------------------------------------|
   .  .  .                 .  .      .  .        . .

e|---------------------------------------------------------------------------------|
B|---------------------------------------------------------------------------------|
G|-------------11-9-9-11~----------------------------------------------------------|
D|-9-9-12-9-12---------------------------------------------------------------------|
A|---------------------------------------------------------------------------------|
D|---------------------------------------------------------------------------------|
   . .



************************************

| /   slide up
| \   slide down
| h   hammer-on
| p   pull-off
| ~   vibrato
| +   harmonic
| x   Mute note
| b   Bend
| pb  Pre-bend
| br  Bend release
| pbr Pre-bend release
| brb Bend release bend

************************************
2 comments total.
0 reply
Armordes wrote on April 17 2011, 08:44 am

suuuuuch an awesome tab!! thank you very much =D

0 reply
highkingnm wrote on December 7 2011, 01:06 pm

Tuning isn't D its Drop D

I want to post or [tab]
guest
You may want to rate the tab now too:
select rating
Please do not post tabs as comments. Select "correction" instead!