Oops, an error
Loading. Please wait.

Ocean Avenue Tab

ver1
ver1

Album

Whole song

Video

More versions @911Tabs.com
37,629 views 45 this week
14 commentsread comments
1 2 3 4 5
accurate
x 21
Autoscroll
+/-
esc
set tempo
stop
Contributor
WARNING: You are trying to view
                                    content from Ultimate-Guitar.com
                                    in an unauthorized application,
                                    which is prohibited.

                                    Please use an official Ultimate
                                    Guitar Tabs application for iPhone,
                                    iPad or Android to access legitimate
                                    chords, guitar, bass, and drum tabs
                                    from Ultimate-Guitar.com database.

                                    Type "ultimate guitar tabs" in Apple
                                    App Store's or Android Market's
                                    search to find the application.
Email:snoutman928@yahoo.com
this is actually a collection of everyone elses work i just put them together to make it easy

1.)Way Away
Tuning:(DADGBE)

                                  GUITAR 1
                               ---------------

Intro:  X2
e|-----3-----5----3----5----3----5--3-------3----5----3--6-5-3-1-------------| 
B|--------3----3-----3---3----3---------------3-----3------------------------|
G|---------------------------------------3-----------------------------------|
D|--0------------------------------------------------------------------------|
A|---------------------------------------------------------------------------|
D|---------------------------------------------------------------------------|


Intro Cont'd:  X2
e|---------------------------------------------------------------------------| 
B|---------------------------------------------------------------------------|
G|---------------------------------------------------------------------------|
D|-0-0-0-0-0-0-0-0-0-0-0-0-0-5-5-5-8-8-8-8-8-8-8-8-8-8-8-8-8-3-3-3-----------|
A|-0-0-0-0-0-0-0-0-0-0-0-0-0-5-5-5-8-8-8-8-8-8-8-8-8-8-8-8-8-3-3-3-----------|
D|-0-0-0-0-0-0-0-0-0-0-0-0-0-5-5-5-8-8-8-8-8-8-8-8-8-8-8-8-8-3-3-3-----------|


Verse: "I think I'm breaking out..."

No Guitar 1

Verse Cont'd: "It's all the same"
e|---------------------------------------------------------------------------|
B|---------------------------------------------------------------------------|
G|---------------------------------------------------------------------------|
D|--3-3-3-3-3-2-2-2-2-2------------------------------------------------------|
A|--3-3-3-3-3-3-3-3-3-3------------------------------------------------------|
D|--3-3-3-3-3-2-2-2-2-2------------------------------------------------------|


Repeat Verse


Chorus: "Way away away from here I'll be"
e|---------------------------------------------------------------------------|
B|---------------------------------------------------------------------------|
G|---------------------------------------------------------------------------|
D|-0-0-0-0-0-0-0-0-0-0-0-0-3-3-3-3-3-3-3-3-3-3-3-3---------------------------|
A|-0-0-0-0-0-0-0-0-0-0-0-0-3-3-3-3-3-3-3-3-3-3-3-3---------------------------|
D|-0-0-0-0-0-0-0-0-0-0-0-0-3-3-3-3-3-3-3-3-3-3-3-3---------------------------|


Chorus Cont'd: "Way away away so you can see"
e|---------------------------------------------------------------------------|
B|---------------------------------------------------------------------------|
G|---------------------------------------------------------------------------|
D|-8-8-8-8-8-8-8-8-8-8-8-8-7-7-7-7-7-7-7-7-7-7-7-7---------------------------|
A|-8-8-8-8-8-8-8-8-8-8-8-8-8-8-8-8-8-8-8-8-8-8-8-8---------------------------|
D|-8-8-8-8-8-8-8-8-8-8-8-8-7-7-7-7-7-7-7-7-7-7-7-7---------------------------|


Chours Cont'd: "How it feels to be alone and not believed"
e|---------------------------------------------------------------------------|
B|---------------------------------------------------------------------------|
G|---------------------------------------------------------------------------|
D|-5-5-5-5-5-5-5-5-5-5-5-5-0-0-0-0-0-0-2-2-2-2-2-2---------------------------|
A|-5-5-5-5-5-5-5-5-5-5-5-5-0-0-0-0-0-0-3-3-3-3-3-3---------------------------|
D|-5-5-5-5-5-5-5-5-5-5-5-5-0-0-0-0-0-0-2-2-2-2-2-2---------------------------|


Chorus Cont'd: "Feels to be alone and not believe, anything"
e|---------------------------------------------------------------------------|
B|---------------------------------------------------------------------------|
G|---------------------------------------------------------------------------|
D|-5-5-5-5-5-5-5-5-5-5-5-5-8-8-8-8-8-8-8-8-8-8-8-8---------------------------|
A|-5-5-5-5-5-5-5-5-5-5-5-5-8-8-8-8-8-8-8-8-8-8-8-8---------------------------|
D|-5-5-5-5-5-5-5-5-5-5-5-5-8-8-8-8-8-8-8-8-8-8-8-8---------------------------|


Repeat second part of intro


Verse: "You can't stop me now..."
e|---------------------------------------------------------------------------|
B|---------------------------------------------------------------------------|
G|---------------------------------------------------------------------------|
D|---------------------------------------------------------------------------|
A|-5-5-5-5-5-5-5-5-5-5-5-5-5-5-5-5-3-3-3-3-3-3-3-3-3-3-3-3-3-3-3-------------|
D|---------------------------------------------------------------------------|
   . . . . . . . . . . . . . . . . . . . . . . . . . . . . . . . 
e|---------------------------------------------------------------------------|
B|---------------------------------------------------------------------------|
G|---------------------------------------------------------------------------|
D|---------------------------------------------------------------------------|
A|-1-1-1-1-1-1-1-1-1-1-1-1-1-1-1-1-------------------------------------------|
D|---------------------------------------------------------------------------|
   . . . . . . . . . . . . . . . .

Verse Cont'd: "I'm on my way"
e|---------------------------------------------------------------------------|
B|---------------------------------------------------------------------------|
G|---------------------------------------------------------------------------|
D|-3-3-3-3-3-2-2-2-2-2-------------------------------------------------------|
A|-3-3-3-3-3-3-3-3-3-3-------------------------------------------------------|
D|-3-3-3-3-3-2-2-2-2-2-------------------------------------------------------|


Repeat Verse


Pre-Chorus: "Yea.."
e|---------------------------------------------------------------------------|
B|---------------------------------------------------------------------------|
G|---------------------------------------------------------------------------|
D|-8-8-8-8-8-8-8-8-8-8-8-8-8-8-8-8-------------------------------------------|
A|-8-8-8-8-8-8-8-8-8-8-8-8-8-8-8-8-------------------------------------------|
D|-8-8-8-8-8-8-8-8-8-8-8-8-8-8-8-8-------------------------------------------|

Repeat Chorus

 
Bridge: No Guitar 1


Breakdown: "Letting out the noise inside of me..."  X4
e|---------------------------------------------------------------------------| 
B|---------------------------------------------------------------------------|
G|---------------------------------------------------------------------------|
D|-0-0-0-0-0-0-0-0-0-0-0-0-0-0-0-0-7-7-7-7-7-7-7-7-7-7-7-7-7-7-7-7-----------|
A|-0-0-0-0-0-0-0-0-0-0-0-0-0-0-0-0-7-7-7-7-7-7-7-7-7-7-7-7-7-7-7-7-----------|
D|-0-0-0-0-0-0-0-0-0-0-0-0-0-0-0-0-7-7-7-7-7-7-7-7-7-7-7-7-7-7-7-7-----------|


Breakdown Cont'd:
e|---------------------------------------------------------------------------|
B|---------------------------------------------------------------------------|
G|---------------------------------------------------------------------------|
D|-7-7-7-7-7-7-7-7-7-7-7-7-7-7-7-7-0-0---------------------------------------|
A|-7-7-7-7-7-7-7-7-7-7-7-7-7-7-7-7-0-0---------------------------------------|
D|-7-7-7-7-7-7-7-7-7-7-7-7-7-7-7-7-0-0---------------------------------------|


Repeat Chorus: (Start on the second chord)




                     

                                   GUITAR 2 
                               ----------------
Intro X2
e|---------------------------------------------------------------------------| 
B|---------------------------------------------------------------------------|
G|---0---2---0---2---0---2---0----0---2---0---3---2---0----------------------|
D|-0---0---0---0---0---0---0------------------------------3------------------|
A|------------------------------1---1---1---1---1---1---1--------------------|
D|---------------------------------------------------------------------------|


Intro Cont'd  X2
e|---------------------------------------------------------------------------| 
B|---------------------------------------------------------------------------|
G|-12-12-14-12-14-12-14-12-12-12-12-12-14-12-15-14-12-10--10--10-------------|
D|---------------------------------------------------------------------------|
A|-10-10-12-10-12-10-12-10-10-10-10-10-12-10-13-12-10-8---8---8--------------|
D|---------------------------------------------------------------------------|


Verse: "I think I'm breaking out.." (It's hard to hear but just do some picking
stuff with this chord)
e|-5-------------------------------------------------------------------------|
B|-6-------------------------------------------------------------------------|
G|-7-------------------------------------------------------------------------|
D|-7-------------------------------------------------------------------------|
A|-5-------------------------------------------------------------------------|
D|---------------------------------------------------------------------------|


Verse Cont'd
e|---------------------------------------------------------------------------|
B|---------------------------------------------------------------------------|
G|---------------------------------------------------------------------------|
D|-3-3-3-3-3-3-2-2-2-2-2-2---------------------------------------------------|
A|-3-3-3-3-3-3-3-3-3-3-3-3---------------------------------------------------|
D|-3-3-3-3-3-3-2-2-2-2-2-2---------------------------------------------------|


Chorus: (Same as Guitar 1)


Repeat second Part of Intro


Repeat Verse


Pre-Chorus: (Same as Guitar 1)


Chorus: (Same as Guitar 1)


Bridge: ( It's hard to make out what he's playin', but I think it goes like this)   X5
e|-----5----------5-----------5--8-----5-5--8--------------------------------| 
B|-------5-6--------5-6-------------6----------------------------------------|
G|--7---------7-7--------7-7-------------------------------------------------|
D|---------------------------------------------------------------------------|
A|---------------------------------------------------------------------------|
D|---------------------------------------------------------------------------|


Breakdown:
e|---------------------------------------------------------------------------|
B|---------------------------------------------------------------------------|
G|-7-7-7-7-9-9-9-9-10-10-10-10-12-12-12-12-12--------------------------------|
D|---------------------------------------------------------------------------|
A|-5-5-5-5-7-7-7-7-8--8--8--8--10-10-10-10-10--------------------------------|
D|---------------------------------------------------------------------------|

e|---------------------------------------------------------------------------| X4
B|---------------------------------------------------------------------------|
G|---------------------------------------------------------------------------|
D|-7-7-7-7-7-7-7-7-7-7-7-7-7-7-7-7-------------------------------------------|
A|-7-7-7-7-7-7-7-7-7-7-7-7-7-7-7-7-------------------------------------------|
D|-7-7-7-7-7-7-7-7-7-7-7-7-7-7-7-7-------------------------------------------|


Breakdown Cont'd:
e|---------------------------------------------------------------------------|
B|---------------------------------------------------------------------------|
G|---------------------------------------------------------------------------|
D|-7-7-7-7-7-7-7-7-7-7-7-7-7-7-7-7-0-0---------------------------------------|
A|-7-7-7-7-7-7-7-7-7-7-7-7-7-7-7-7-0-0---------------------------------------|
D|-7-7-7-7-7-7-7-7-7-7-7-7-7-7-7-7-0-0---------------------------------------|


Repeat Chorus: (Start on second chord)


2.)Breathing
Intro - palm muted
e|---------------------------------------------------------------------------|
B|---------------------------------------------------------------------------|
G|------555-------------------555--------------------------------------------|
D|--222-555-444-55555-44--222-555-444-5555-----------------------------------|
A|--222-333-444-55555-44--222-333-444-5555-----------------------------------|
E|--000-----222-33333-22--000-----222-3333-----------------------------------|

Intro cont. not pm

e|---------------------------------------------------------------------------|
B|---------------------------------------------------------------------------|
G|------555-------------------555--------------------------------------------|
D|--222-555-444-55555-44--222-555-444-5555-4---------------------------------|
A|--222-333-444-55555-44--222-333-444-5555-4---------------------------------|
E|--000-----222-33333-22--000-----222-3333-2---------------------------------|

e|---------------------------------------------------------------------------|
B|---------------------------------------------------------------------------|
G|--7/9-9\7-7/9--11/1212/14\12-11-7-7/9--9-7-4-------------------------------|
D|--x-x-x-x-x-x--x--x-x--x--x--x--x-x-x--x-x-x-------------------------------|
A|--5/7-7\5-5/7--9-/1010/12\10-9--5-5/7--7-5-2-------------------------------|
E|---------------------------------------------------------------------------|

Verse

e|---------------------------------------------------------------------------|
B|---------------------------------------------------------------------------|
G|--55-5-5-77-7-7---------------------55-5-5-77-7-7-------------44-4---------|
D|--55-5-5-77-7-7-22-2-2-2-22-5-55-4--55-5-5-77-7-7-22-2-2-22-2-44-4---------|
A|--33-3-3-55-5-5-22-2-2-2-22-5-55-4--33-3-3-55-5-5-22-2-2-22-2-22-2---------|
E|----------------00-0-0-0-00-3-33-2----------------00-0-0-00-0--------------|
Pm  ..     ..     ..       ..   ..    ..     ..     ..     ..   ..

e|---------------------------------------------------------------------------|
B|---------------------------------------------------------------------------|
G|--55-5-55-5-77-7-77-7----------------4-44-5--55-5-55-5-77-7-77-7-----------|
D|--55-5-55-5-77-7-77-7-22-2-22-2-2-22-4-44-5--55-5-55-5-77-7-77-7-----------|
A|--33-3-33-3-55-5-55-5-22-2-22-2-2-22-2-22-3--33-3-33-3-55-5-55-5-----------|
E|----------------------00-0-00-0-0-00---------------------------------------|
Pm  ..   ..   ..   ..   ..   ..     ..   ..    ..   ..   ..   ..

e|---------------------------------------------------------------------------|
B|---------------------------------------------------------------------------|
G|---------------------------------------------------------------------------|
D|--2-22-2-22-2-2------------------------------------------------------------|
A|--2-22-2-22-2-2------------------------------------------------------------|
E|--0-00-0-00-0-0------------------------------------------------------------|
Pm    ..   .. 

Chorus 

e|---------------------------------------------------------------------------|
B|---------------------------------------------------------------------------|
G|--5555555555555555-7777777777777777----------------------------------------|
D|--5555555555555555-7777777777777777-22-222-0-22-222-0----------------------|
A|--3333333333333333-5555555555555555-22-222-0-22-222-0----------------------|
E|------------------------------------00-000-0-00-000-0----------------------|

e|---------------------------------------------------------------------------|
B|---------------------------------------------------------------------------|
G|--7/9-9\7-7/9--11/1212/14\12-11-7-7/9--9-7-4-------------------------------|
D|--x-x-x-x-x-x--x--x-x--x--x--x--x-x-x--x-x-x-------------------------------|
A|--5/7-7\5-5/7--9-/1010/12\10-9--5-5/7--7-5-2-------------------------------|
E|---------------------------------------------------------------------------|

Repeat verse
Repeat chorus

Bridge

e|---------------------------------------------------------------------------|
B|---------------------------------------------------------------------------|
G|--99999-7-99999-7-99999-7-99999--------------------------------------------|
D|--99999-7-99999-7-99999-7-99999--------------------------------------------|
A|---------------------------------------------------------------------------|
E|---------------------------------------------------------------------------|

e|---------------------------------------------------------------------------|
B|---------------------------------------------------------------------------|
G|------555-------------------555--------------------------------------------|
D|--222-555-444-55555-44--222-555-444-5555-4---------------------------------|
A|--222-333-444-55555-44--222-333-444-5555-4---------------------------------|
E|--000-----222-33333-22--000-----222-3333-2---------------------------------|

e|---------------------------------------------------------------------------|
B|---------------------------------------------------------------------------|
G|------555-------------------555--------------------------------------------|
D|--222-555-444-55555-44--222-555-444-5555-4---------------------------------|
A|--222-333-444-55555-44--222-333-444-5555-4---------------------------------|
E|--000-----222-33333-22--000-----222-3333-2---------------------------------|

e|--0-0000-4-4444-3-3333-333-7\-0-0000--------------4-3----------------------|
B|--1-1111-5-5555-0-0000-000----1-1111-3-3333-1-111-5-0----------------------|
G|--0-0000-4-4444-0-0000-000----0-0000-4-4444-2-222-4-0----------------------|
D|-------------------------------------4-4444-2-222--------------------------|
A|---------------------------------------------------------------------------|
E|---------------------------------------------------------------------------|

e|--0-0000-4-4444-3-3333-333-7\-0-0000-4-4444-3-3333-------------------------|
B|--1-1111-5-5555-0-0000-000----1-1111-5-5555-0-0000-------------------------|
G|--0-0000-4-4444-0-0000-000----0-0000-4-4444-0-0000-------------------------|
D|---------------------------------------------------------------------------|
A|---------------------------------------------------------------------------|
E|---------------------------------------------------------------------------|

Repeat chorus

3.)Ocean Avenue 
Tuning: (DADGBE)
                   
                    		        GUITAR 1
                         ----------------------------------------

Intro/Verse: "Theres a place on Ocean Avenue..." X9
e|---------------------------------------------------------------------------| 
B|---------------------------------------------------------------------------|
G|---------------------------------------------------------------------------|
D|-2-2-2-2--4-4-4-4-4-4--0-0-0-0--0-0-0-0-0-0--------------------------------|
A|-2-2-2-2--4-4-4-4-4-4--0-0-0-0--0-0-0-0-0-0--------------------------------|
D|-2-2-2-2--4-4-4-4-4-4--0-0-0-0--0-0-0-0-0-0--------------------------------|
pm . . . .  . . . . . .  . . . .  . . . . . .

Chorus: "If I could find you now things would be better.." X3
e|---------------------------------------------------------------------------| 
B|---------------------------------------------------------------------------|
G|---------------------------------------------------------------------------|
D|-2-2-2-2-2-2-4-4-4-4-4-4-0-0-0-0-0-0-0-0-0-0-0-0---------------------------|
A|-2-2-2-2-2-2-4-4-4-4-4-4-0-0-0-0-0-0-0-0-0-0-0-0---------------------------|
D|-2-2-2-2-2-2-4-4-4-4-4-4-0-0-0-0-0-0-0-0-0-0-0-0---------------------------|


Interlude/Verse: (Repeat verse X5)


Repeat Chorus


Bridge: X2
e|---------------------------------------------------------------------------| 
B|---------------------------------------------------------------------------|
G|-2-2-2-2--2-2-2-2-2-2------------------------------------------------------|
D|-2-2-2-2--2-2-2-2-2-2------------------------------------------------------|
A|-0-0-0-0--0-0-0-0-0-0------------------------------------------------------|
D|---------------------------------------------------------------------------|


Bridge Cont'd: X2
e|---------------------------------------------------------------------------| 
B|---------------------------------------------------------------------------|
G|-2-2-2-2-2-2-2-2-2-2-2-2-2-2-2-2-------------------------------------------|
D|-2-2-2-2-2-2-2-2-2-2-2-2-2-2-2-2-4-4-4-4-4-4-4-4-4-4-4-4-4-4-4-4-----------|
A|-0-0-0-0-0-0-0-0-0-0-0-0-0-0-0-0-4-4-4-4-4-4-4-4-4-4-4-4-4-4-4-4-----------|
D|---------------------------------4-4-4-4-4-4-4-4-4-4-4-4-4-4-4-4-----------|

e|---------------------------------------------------------------------------|
B|---------------------------------------------------------------------------|
G|---------------------------------------------------------------------------|
D|-2-2-2-2-2-2-2-2-6-6-6-6-7-7-7-7-0-0-0-0-0-0-0-0-0-0-0-0-0-0-0-0-----------|
A|-2-2-2-2-2-2-2-2-x-x-x-x-x-x-x-x-0-0-0-0-0-0-0-0-0-0-0-0-0-0-0-0-----------|
D|-2-2-2-2-2-2-2-2-6-6-6-6-7-7-7-7-0-0-0-0-0-0-0-0-0-0-0-0-0-0-0-0-----------|


Repeat Chorus


Outro:  X2
e|---------------------------------------------------------------------------| 
B|---------------------------------------------------------------------------|
G|-4-4-4-4--6-6-6-6-6-6--2-2-2-2--2-2-2-2-2-2--------------------------------|
D|-2-2-2-2--4-4-4-4-4-4--0-0-0-0--0-0-0-0-0-0--------------------------------|
A|-2-2-2-2--4-4-4-4-4-4--0-0-0-0--0-0-0-0-0-0--------------------------------|
D|-2-2-2-2--4-4-4-4-4-4--0-0-0-0--0-0-0-0-0-0--------------------------------|


Outro Cont'd:
e|---------------------------------------------------------------------------|
B|---------------------------------------------------------------------------|
G|---------------------------------------------------------------------------|
D|-7--7--2--0----------------------------------------------------------------|
A|-5--4--0--0----------------------------------------------------------------|
D|----------0----------------------------------------------------------------|






                                       GUITAR 2
                              ----------------------------



Intro: No Guitar 2


Verse: "Night"                 "Stayin' up all night"
e|---------------------------------------------------------------------------|
B|---------------------------------------------------------------------------|
G|---------------------------------------------------------------------------|
D|--/6----6--7----7----4\------/6-----6--7-----7-----4--2--4\----------------|
A|------7-------0----0-------------7--------0-----0--------------------------|
D|---------------------------------------------------------------------------|



Verse Cont'd: "Sleepin all day stayin up all night"   (Repeat what you do above)
Guitar 3
e|---------------------------------------------------------------------------|
B|-------------------7---10----------------------------7--5--7---------------|
G|---------------------------------------------------------------------------|
D|--/6----6--7----7------------/6----6--7------7-----------------------------|
A|------7-------0------------------7--------0-----0--------------------------|
D|---------------------------------------------------------------------------|


Chorus: (Same as Guitar 1)


Interlude: (Repeat first half of the Verse)


Verse: :There's a peice of you thats here with me" X2
e|---------------------------------------------------------------------------| 
B|---------------------------------------------------------------------------|
G|---------------------------------------------------------------------------|
D|-6-6-6-6--7-7-7-7-7-7--4-4-4-4--4-4-4-4-4-4--------------------------------|
A|---------------------------------------------------------------------------|
D|---------------------------------------------------------------------------|
pm . . . .  . . . . . .  . . . .  . . . . . .


Repeat Verse Cont'd


Repeat Chorus


Bridge: No Guitar 2	


Bridge Cont'd: (Do that until the chorus)
e|---------0-----------------------------------------------------------------|
B|------0-----0--------------------------------------------------------------|
G|-1h2-----------------------------------------------------------------------|
D|---------------------------------------------------------------------------|
A|---------------------------------------------------------------------------|
D|---------------------------------------------------------------------------|


Repeat Chorus


Outro: Same as Guitar 1


Outro Cont'd: Same as Guitar 1

4.)Empty Apartment
standard tuning

      intro, verses, solo (interlude)
e|-------33333----33-3333-xxxxx-|-1111111~-|
B|-11111-33333----33-3333-33333-|-1111111~-|
G|-22222-00000----00-0000-22222-|-2222221~-|
D|-22222-22222----00-0000-00000-|-3333333~-|
A|-------33333-0h22222222-00000-|-3333333~-|
E|------------------33333-22222-|-1111111~-|
          

           chorus
e|-00000-00000-00000-1111111-|
B|-11111-11111-11111-1111111-|
G|-00000-00000-22222-2222222-|
D|-22222-00000-22222-3333333-|
A|-33333-22222-00000-3333333-|
E|-------------------1111111-|


                          solo (interlude)
e|------------------------------------8-----------------------|
B|-7-5-7~~5-7-5--5/9-9-7-9-7-7/5-7b(9)-7-7p5-5----------------|
G|--------------7---------------------------7-7~~-------------|
D|------------------------------------------------------------|
A|------------------------------------------------------------|
E|------------------------------------------------------------|

e|------------------------------------------------------------|
B|------------------------------------------------------------|
G|------------------------------------------------------------|
D|------------------------------------------------------------|
A|-7h10101010p999p77-5h7--------------------------------------|
E|------------------------------------------------------------|

     ending verse
e|---------------------|
B|---------------------|
G|-5555-4444-2222------|
D|-5555-5555-2222-3333-|
A|-3333-2222-0000-3333-|
E|----------------1111-|


start of last chorus starts on 2nd chord
e|----------------------|
B|----------------------|
G|-444444-222222--------|
D|-555555-222222-333333-|
A|-222222-000000-333333-|
E|---------------111111-|


     play this until the end
e|----------------------------------|
B|----------------------------------|
G|-5555555-4444444-2222222----------|
D|-5555555-5555555-2222222-33333333-|
A|-3333333-2222222-0000000-33333333-|
E|-------------------------11111111-|

5.)Life Of A Salesman
drop d                      Guitar 1
                       --------------------

Intro:
e|--------------------------------------------------------------------------|X2
B|--------------------------------------------------------------------------|
G|--------------------------------------------------------------------------|
D|-6-6-6-6-6-6-6-6-6-6-4-4-4-4-4-4-4-4-4-4-2-2-2-2-2-2-2-2-2----------------|
A|-6-6-6-6-6-6-6-6-6-6-4-4-4-4-4-4-4-4-4-4-2-2-2-2-2-2-2-2-2----------------|
D|-6-6-6-6-6-6-6-6-6-6-4-4-4-4-4-4-4-4-4-4-2-2-2-2-2-2-2-2-2----------------|

e|--------------------------------------------------------------------------|
B|--------------------------------------------------------------------------|
G|--------------------------------------------------------------------------|
D|-9-9-9-9-9-9-2-2-2-2------------------------------------------------------|
A|-9-9-9-9-9-9-2-2-2-2------------------------------------------------------|
D|-9-9-9-9-9-9-2-2-2-2------------------------------------------------------|


Verse: "Whats a dad for dad.."

No Guitar 1

Verse Cont'd: "Man dad..."
e|--------------------------------------------------------------------------| 
B|--------------------------------------------------------------------------|
G|--------------------------------------------------------------------------|
D|-9-9-9-9-9-9-9-9-9-9-4-4-4-4-4-4-4-4-4-4-2-2-2-2-2-2-2-2-2----------------|
A|-9-9-9-9-9-9-9-9-9-9-4-4-4-4-4-4-4-4-4-4-2-2-2-2-2-2-2-2-2----------------|
D|-9-9-9-9-9-9-9-9-9-9-4-4-4-4-4-4-4-4-4-4-2-2-2-2-2-2-2-2-2----------------|

e|--------------------------------------------------------------------------|
B|--------------------------------------------------------------------------|
G|--------------------------------------------------------------------------|
D|-6-6-6-6-6-6-6--4-4-4-4-4-4-4---------------------------------------------|
A|-6-6-6-6-6-6-6--4-4-4-4-4-4-4---------------------------------------------|
D|-6-6-6-6-6-6-6--4-4-4-4-4-4-4---------------------------------------------|

Pre-Chorus: 
e|--------------------------------------------------------------------------|
B|--------------------------------------------------------------------------|
G|--------------------------------------------------------------------------|
D|-2-2--2-2--2-2--5-5--5-5--5-----------------------------------------------|
A|-2-2--2-2--2-2--5-5--5-5--5-----------------------------------------------|
D|-2-2--2-2--2-2--4-4--4-4--4-----------------------------------------------|

Chorus: "Father I will always be.."
e|--------------------------------------------------------------------------|
B|--------------------------------------------------------------------------|
G|-4-4-4-4-4-4-4-4-4-4-4-4-4-4-4-4------------------------------------------|
D|-4-4-4-4-4-4-4-4-4-4-4-4-4-4-4-4-2-2-2-2-2-2-2-2-2-2-2-2-2-2-2-2----------|
A|-2-2-2-2-2-2-2-2-2-2-2-2-2-2-2-2-2-2-2-2-2-2-2-2-2-2-2-2-2-2-2-2----------|
D|---------------------------------2-2-2-2-2-2-2-2-2-2-2-2-2-2-2-2----------|


e|--------------------------------------------------------------------------|X2
B|--------------------------------------------------------------------------|
G|--------------------------------------------------------------------------|
D|-6-6-6-6-6-6-6-6-6-6-6-6-6-6-6-6-4-4-4-4-4-4-4-4-4-4-4-4-4-4-4-4----------|
A|-6-6-6-6-6-6-6-6-6-6-6-6-6-6-6-6-4-4-4-4-4-4-4-4-4-4-4-4-4-4-4-4----------|
D|-6-6-6-6-6-6-6-6-6-6-6-6-6-6-6-6-4-4-4-4-4-4-4-4-4-4-4-4-4-4-4-4----------|

Repeat Intro 

Verse: "What's a dad for dad..."
e|--------------------------------------------------------------------------|
B|--------------------------------------------------------------------------|
G|-4-4-4-4-4-4-4-4-4-4-4-4-4-4-4-4------------------------------------------|
D|-4-4-4-4-4-4-4-4-4-4-4-4-4-4-4-4-2-2-2-2-2-2-2-2-2-2-2-2-2-2-2-2----------|
A|-2-2-2-2-2-2-2-2-2-2-2-2-2-2-2-2-2-2-2-2-2-2-2-2-2-2-2-2-2-2-2-2----------|
D|---------------------------------2-2-2-2-2-2-2-2-2-2-2-2-2-2-2-2----------|

e|--------------------------------------------------------------------------|X2
B|--------------------------------------------------------------------------|
G|--------------------------------------------------------------------------|
D|-6-6-6-6-6-6-6--4-4-4-4-4-4-4---------------------------------------------|
A|-6-6-6-6-6-6-6--4-4-4-4-4-4-4---------------------------------------------|
D|-6-6-6-6-6-6-6--4-4-4-4-4-4-4---------------------------------------------|
   

Pre-Chorus:
e|--------------------------------------------------------------------------|
B|--------------------------------------------------------------------------|
G|--------------------------------------------------------------------------|
D|-2-2--2-2--2-2--5-5--5-5--5-----------------------------------------------|
A|-2-2--2-2--2-2--5-5--5-5--5-----------------------------------------------|
D|-2-2--2-2--2-2--4-4--4-4--4-----------------------------------------------|
 
Repeat Chorus

Bridge:
e|--------------------------------------------------------------------------|
B|----------7---------------------------------------------------------------|
G|-4--3--4--x--4--6--8------------------------------------------------------|
D|-x--x--x--4--x--x--x------------------------------------------------------|
A|-2--1--2-----2--4--6------------------------------------------------------|
D|--------------------------------------------------------------------------|


Guitar Solo:
e|--------------------------------------------------------------------------|
B|--------------------------------------------------------------------------|
G|-6-6-6-6-6-6---------------4-4-4-4-4-4------------------------------------|
D|-6-6-6-6-6-6--2-2-2-2-2-2--4-4-4-4-4-4--6-6-6-6-4-4--2-2-2-2--4-4-4-4-4-44|
A|-4-4-4-4-4-4--2-2-2-2-2-2--2-2-2-2-2-2--6-6-6-6-4-4--2-2-2-2--4-4-4-4-4-44|
D|--------------2-2-2-2-2-2---------------6-6-6-6-4-4--2-2-2-2--4-4-4-4-4-44|


Chorus: "Father I will always be..."
e|--------------------------------------------------------------------------|
B|--------------------------------------------------------------------------|
G|--------------------------------------------------------------------------|
D|-4-4-4-4-4-4-4-4--------------------------------------------4-4-4-4-------|
A|-2-2-2-2-2-2-2-2--2-2-2-2-2-2-2-2--6-6-6-6-6-6-6-6--4-4-4-4-4-4-4-4-------|
D|------------------2-2-2-2-2-2-2-2--6-6-6-6-6-6-6-6--4-4-4-4-4-4-4-4-------|
  

Chorus Cont'd: "Watched you tower..."  (Play that till the end of the song)
e|--------------------------------------------------------------------------|
B|--------------------------------------------------------------------------|
G|-4-4-4-4-4-4-4-4-4-4-4-4-4-4-4-4------------------------------------------|
D|-4-4-4-4-4-4-4-4-4-4-4-4-4-4-4-4-2-2-2-2-2-2-2-2-2-2-2-2-2-2-2-2----------|
A|-2-2-2-2-2-2-2-2-2-2-2-2-2-2-2-2-2-2-2-2-2-2-2-2-2-2-2-2-2-2-2-2----------|
D|---------------------------------2-2-2-2-2-2-2-2-2-2-2-2-2-2-2-2----------|

e|--------------------------------------------------------------------------|
B|--------------------------------------------------------------------------|
G|--------------------------------------------------------------------------|
D|-6-6-6-6-6-6-6-6-6-6-6-6-6-6-6-6-4-4-4-4-4-4-4-4-4-4-4-4-4-4-4-4----------|
A|-6-6-6-6-6-6-6-6-6-6-6-6-6-6-6-6-4-4-4-4-4-4-4-4-4-4-4-4-4-4-4-4----------|
D|-6-6-6-6-6-6-6-6-6-6-6-6-6-6-6-6-4-4-4-4-4-4-4-4-4-4-4-4-4-4-4-4----------|



GUITAR 2
-------
for some of the parts he uses a artifical harmonic and a flanger and most likely a phaser.

Intro: (just keep hitting this note while doing the ah)
e|--------------------------------------------------------------------------|
B|--------------------------------------------------------------------------|
G|--------------------------------------------------------------------------|
D|-9------------------------------------------------------------------------|
A|--------------------------------------------------------------------------|
D|--------------------------------------------------------------------------|
  
Verse: :What's a dad for dad..."
e|--------------------------------------------------------------------------|X2
B|--------------------------------------------------------------------------|
G|--------------------------------------------------------------------------|
D|-9----4---2---6---4-------------------------------------------------------|
A|--------------------------------------------------------------------------|
D|--------------------------------------------------------------------------|
  

Pre-Chorus:
e|--------------------------------------------------------------------------|
B|--------------------------------------------------------------------------|
G|-9--8--11-9--12--11-9--8--------------------------------------------------|
D|-x--x--x--x--x---x--x--x--------------------------------------------------|
A|-7--6--9--7--10--9--7--6--------------------------------------------------|
D|--------------------------------------------------------------------------|


Chorus: 
e|--------------------------------------------------------------------------|
B|--------------------------------------------------------------------------|
G|-4-4-4-4-4-4-4-4-4-4-4-4-4-4-4-4------------------------------------------|
D|-4-4-4-4-4-4-4-4-4-4-4-4-4-4-4-4-2-2-2-2-2-2-2-2-2-2-2-2-2-2-2-2----------|
A|-2-2-2-2-2-2-2-2-2-2-2-2-2-2-2-2-2-2-2-2-2-2-2-2-2-2-2-2-2-2-2-2----------|
D|---------------------------------2-2-2-2-2-2-2-2-2-2-2-2-2-2-2-2----------|

e|--------------------------------------------------------------------------|X2
B|--------------------------------------------------------------------------|
G|-8-8-8-8-8-8-8-8-8-8-8-8-8-8-8-8-6-6-6-6-6-6-6-6-6-6-6-6-6-6-6-6----------|
D|-6-6-6-6-6-6-6-6-6-6-6-6-6-6-6-6-4-4-4-4-4-4-4-4-4-4-4-4-4-4-4-4----------|
A|-6-6-6-6-6-6-6-6-6-6-6-6-6-6-6-6-4-4-4-4-4-4-4-4-4-4-4-4-4-4-4-4----------|
D|-6-6-6-6-6-6-6-6-6-6-6-6-6-6-6-6-4-4-4-4-4-4-4-4-4-4-4-4-4-4-4-4----------|


Verse: (do the ah on the 9th fret for a little then do what guitar 1 does)

Repeat Pre-Chorus

Repeat Chorus

Bridge: (no guitar 2)

Guitar Solo:
e|--------------------------------------------------------------------------| 
B|--------------4h5p4-----4-5~----------------------------------------------|
G|-4-8-6~--4-6---------6------------6h8p6---6-8~--6b(7)---6---4~------------|
D|------------------------------6-9-------9---------------------------------|
A|--------------------------------------------------------------------------|
D|--------------------------------------------------------------------------|
                                                
 

Do this part using a wah to get the best effect!

e|--------------------------------14p12p11h12~------------------------------|X2
B|-12--11--9~---9h11h12--9h1h12---------------------------------------------|
G|--------------------------------------------------------------------------|
D|----------------------------------------------------14-13-14~-------------|
A|--------------------------------------------------------------------------|
D|--------------------------------------------------------------------------|
                                                     
e|-----------------------------------------------------------14p12p11-------|
B|-------------------------------------------------11-12-14-----------12h14-|
G|---------11--14------------11--14---------11-14---------------------------|
D|-13-14------------13--14-----------13-14----------------------------------|
A|--------------------------------------------------------------------------|
D|--------------------------------------------------------------------------|
   .  .             .   .

(end part of the solo) 
e|--------------------------------------------------------------------------|
B|-11-12-14-16-12~----------------------------------------------------------|
G|--------------------------------------------------------------------------|
D|--------------------------------------------------------------------------|
A|--------------------------------------------------------------------------|
D|--------------------------------------------------------------------------|

6.)Only One
Gtr.1 - Standard
Gtr.2 - Standard
Gtr.3 - Standard
Gtr.4 - Standard(violin)
Gtr.5 - Standard(violin)
Gtr.6 - Standard
Gtr.7 - Standard(violin)

Intro/Verse(use some effects for both gtrs)
Gtr.1
e|-------------------------------------|--------------------------------------|
B|---9------9------9------9------9-----|-----12-----12-------12-----12------12|
G|-----9------9------9------9------9---|--------------------------------------|
D|-9-----9------9-------9-----9------9-|---9-------9-------9-------9------9---|
A|-------------------------------------|12------12------12------12-----12-----|
E|-------------------------------------|--------------------------------------|
Gtr.2
e|-------------------------------------|--------------------------------------|
B|-------------------------------------|--------------------------------------|
G|---9------9------9------9------9-----|---9-------9-------9-------9------9---|
D|-----9------9------9------9------9---|-----9-------9-------9-------9------9-|
A|11-----11-----11-----11-----11-----11|12------12------12------12-----12-----|
E|-------------------------------------|--------------------------------------|
cont'd
Gtr.1
e|----------------------|----------------------|
B|----------------------|----------------------|
G|--------9------9----9-|-------9-------9----9-|
D|-9-13-9---13-9---13---|-14--9---14--9---14---|
A|----------------------|----------------------|
E|----------------------|----------------------|
Gtr.2
e|----------------------|----------------------|
B|----------------------|----------------------|
G|---------9-----9----9-|-------9-------9----9-|
D|----9--9---9-9---9----|-11-11---11-11---11---|
A|-12-------------------|----------------------|
E|----------------------|----------------------|
cont'd
Gtr.1
e|-----------------------------------------|
B|------12------12------10------9-------10-|
G|-----------------------------------------|
D|----9-------9-------9-------9-------9----|
A|-12------12------12------12------12------|
E|-----------------------------------------|
Gtr.2
e|-----------------------------------------|
B|-----------------------------------------|
G|------13------13------11------9------11--|
D|----9-------9-------9-------9------9-----|
A|-12------12------12------12-----12-------|
E|-----------------------------------------|

Pre Chorus(effects)
Gtr.1
e|------------------------------------------------------------------------|
B|------------------------------------------------------------------------|
G|-9-8---9-8---9-8--9-8---9-8---9-8--9-8----9-8----9-8--9-8----9-8----9-8-|
D|-----9-----9----------9-----9----------11-----11----------11-----11-----|
A|------------------------------------------------------------------------|
E|------------------------------------------------------------------------|
Gtr.2
e|------------------------------------------------------------------------|
B|------------------------------------------------------------------------|
G|-----9-----9---9------9-----9---9-------9------9---9-------9------9---9-|
D|-9-9---9-9---9----9-9---9-9---9----11-11--11-11--11--11-11--11-11--11---|
A|------------------------------------------------------------------------|
E|------------------------------------------------------------------------|
Gtr.3(change when fingering of effects change)(all P.M)
e|---------------------------------------------------------|
B|---------------------------------------------------------|
G|-4-4--4-4-4--4-4-4--4-4-4--4-6-6--6-6-6--6-6-6--6-6-6--6-|
D|-4-4--4-4-4--4-4-4--4-4-4--4-6-6--6-6-6--6-6-6--6-6-6--6-|
A|-2-2--2-2-2--2-2-2--2-2-2--2-4-4--4-4-4--4-4-4--4-4-4--4-|
E|---------------------------------------------------------|
cont'd
Gtr.1
e|----------------------------------------------------------------------|
B|----------------------------------------------------------------------|
G|/13-13-13-13-13-13-13-13-14-14-13-13-13-13-11-11-11-11-11----11----13-|
D|----------------------------------------------------------13----13----|
A|----------------------------------------------------------------------|
E|----------------------------------------------------------------------|
Gtr.2
e|----------------------------------------------------------------------|
B|----------------------------------------------------------------------|
G|-/9--9--9--9--9--9--9--9--9--9--9--9--9--9--8--8--8--8--8-----9----11-|
D|----------------------------------------------------------11----11----|
A|----------------------------------------------------------------------|
E|----------------------------------------------------------------------|
Gtr.3(all P.M.)
e|------------------------------------------------------|
B|------------------------------------------------------|
G|-----------------------------4-4--4-4-4--4--4-4-4-4-4-|
D|-2-2--2-2-2--2-2-2--2-2-2--2-4-4--4-4-4--4--4-4-4-4-4-|
A|-2-2--2-2-2--2-2-2--2-2-2--2-2-2--2-2-2--2--2-2-2-2-2-|
E|-0-0--0-0-0--0-0-0--0-0-0--0--------------------------|

Chorus
Gtr.1
e|-------------------------------------------------|
B|-------------------------------------------------|
G|-6-6-6-6-6-6-6-6-9-9-9-9-9-9-9-9-9-9-9-9-9-9-9-9-|
D|-x-x-x-x-x-x-x-x-x-x-x-x-x-x-x-x-x-x-x-x-x-x-x-x-|
A|-4-4-4-4-4-4-4-4-7-7-7-7-7-7-7-7-7-7-7-7-7-7-7-7-|
E|-------------------------------------------------|
Gtr.2
e|------------------------------------------------|
B|------------------------------------------------|
G|6-6-6-6-6-6-6-6---------------------------------|
D|6-6-6-6-6-6-6-6-7-7-7-7-7-7-7-7-2-2-2-2-2-2-2-2-|
A|4-4-4-4-4-4-4-4-7-7-7-7-7-7-7-7-2-2-2-2-2-2-2-2-|
E|----------------5-5-5-5-5-5-5-5-0-0-0-0-0-0-0-0-|
cont'd
Gtr.1
e|---------------------------------|
B|---------------------------------|
G|-4-4-4-4-4-4-4-4-5-5-5-5-5-5-5-5-|
D|-x-x-x-x-x-x-x-x-x-x-x-x-x-x-x-x-|
A|-2-2-2-2-2-2-2-2-3-3-3-3-3-3-3-3-|
E|---------------------------------|
Gtr.2
e|---------------------------------|
B|---------------------------------|
G|-4-4-4-4-4-4-4-4-5-5-5-5-5-5-5-5-|
D|-4-4-4-4-4-4-4-4-x-x-x-x-x-x-x-x-|
A|-2-2-2-2-2-2-2-2-3-3-3-3-3-3-3-3-|
E|---------------------------------|

Gtrs. 1 and 2 Play Intro/Verse with this part
Gtr.4
e|--------------------------------------------|
B|---------14~----12~-------------------------|
G|-13~------x------x-------13~----------------|
D|--x------11~-----9~-------x---------11-\-9~-|
A|-11~---------------------11~---------x---x--|
E|-------------------------------------9-\-7~-|
Gtr.5
e|--------------------------------------------|
B|--------------------------------------------|
G|--------------------------------------------|
D|-6~-------7~------9~-----6~--------------2~-|
A|-x--------x-------x------x---------------x--|
E|-4~-------5~------7~-----4~--------------0~-|

Gtrs. 1 and 2 play Intro/Verse with this
Gtr.3
(figure out strumming pattern)
e|-0-|-0-|-0-|-0-|-0-|
B|-x-|-x-|-x-|-x-|-x-|
G|-6-|-2-|-4-|-6-|-2-|(chord changes when
D|-6-|-2-|-4-|-6-|-2-|fingerings of effects
A|-4-|-0-|-2-|-4-|-0-|change)
E|---|---|---|---|---|

Gtrs. 1-3 play Pre Chorus with this(Gtr.3 scratches right before Chorus)
Gtr.4
e|-----------------------------|-------------------------------------|--hit-|
B|-----------------------------|-------------------------------------|---a--|
G|--9------9------9---11---9---|---9--------9--------9----11----9----|-bunch|
D|9---9--9---9--9---9----9---9-|11---11--11---11--11---11----11---11-|14-|13|
A|-----------------------------|-------------------------------------|---|--|
E|-----------------------------|-------------------------------------|---|--|

Play Chorus with this
Gtr.5(timing)
e|---|----|---|---------14--17-16~--------------17-16------------|----|----|
B|---|----|---|---12~--------------17~------14----------17~---12~|-13~|-14~|
G|---|----|13~|--------------------------------------------------|----|----|
D|11~|-14~|---|--------------------------------------------------|----|----|
A|---|----|---|--------------------------------------------------|----|----|
E|---|----|---|--------------------------------------------------|----|----|

Solo (Gtrs.1 and 2 play Chorus)(try to get timing with the gtrs.)
Gtr.4
e|------16~|------19-19-17--------------------16~|-------16-16-------|------|
B|17-19----|17-17------------17-17--14-17-19-----|-17-17-------19-19~|17-14~|
G|---------|-------------------------------------|-------------------|------|
D|---------|-------------------------------------|-------------------|------|
A|---------|-------------------------------------|-------------------|------|
E|---------|-------------------------------------|-------------------|------|
Gtr.6
e|----------|--------------------------------------|-------------------|---|
B|----------|-------\9--9--7-----------------------|-------------------|---|
G|--6--8--9~|-6-6-6------------6--6-------6--8--9~-|--6--6--9--9--8--8-|-9-|
D|----------|--------------------------6-----------|-------------------|---|
A|----------|--------------------------------------|-------------------|---|
E|----------|--------------------------------------|-------------------|---|
cont'd
Gtr.5
e|----------------------|----14-15/16~|----------------19-19--17~-|
B|-------12-14-16-17-14~|-17----------|-17-14~--17-17-------------|
G|-13-14----------------|-------------|---------------------------|
D|----------------------|-------------|---------------------------|
A|----------------------|-------------|---------------------------|
E|----------------------|-------------|---------------------------|
Gtr.6
e|----------------------|-------------|-----------------------------|
B|----------------------|-------------|----/12-12-10----------------|
G|---9----11----(11)/13~|--ringing----|9-9-----------9-9----9-11-13~|
D|----------------------|-------------|------------------11---------|
A|----------------------|-------------|-----------------------------|
E|----------------------|-------------|-----------------------------|
cont'd
Gtr.5
e|-16-17-16-------|----------------|----------------------------------|
B|----------17----|----------------|----------------------------------|
G|-------------16~|-----ringing----|-16-18-16-------------------------|
D|----------------|----------------|----------18-14--18-(18)/19-18-16-|
A|----------------|----------------|----------------------------------|
E|----------------|----------------|----------------------------------|
Gtr.6
e|----------------|----------------|----------------------------------|
B|----------------|----------------|----------------------------------|
G|----ringing-----|-13-14-13-------|-13-14-13-------------------------|
D|----------------|----------14-11~|----------14-11--14-(14)/16-14-13-|
A|----------------|----------------|----------------------------------|
E|----------------|----------------|----------------------------------|

Slow Break
Gtr.2(effects)
e|---------------------------------------------------------------------------|
B|---------------------------------------------------------------------------|
G|-----9------9---9-------9------9---9------9------9------9-----9------9-----|
D|11-11--11-11--11---11-11--11-11--11---------9------9------9-----9------9---|
A|-------------------------------------12-12----12-----12-----12----12-----12|
E|---------------------------------------------------------------------------|
cont'd
Gtr.2
e|----------------------------------------------------------------------|
B|----------------------------------------------------------------------|
G|---9-----9-----9------9-----9----------9----9--9-------9-------9----9-|
D|-----9-----9-----9------9-----9----9-9--9-9--9---10-10---10-10---10---|
A|11----11-----11-----11----11----11------------------------------------|
E|----------------------------------------------------------------------|
Gtr.3 plays this(figure out strumming pattern)
e|-0-|-0-|-0-|-0-|-0-|
B|-x-|-0-|-0-|-x-|-x-|(played like chorus)
G|-6-|-2-|-x-|-4-|-5-|
D|-6-|-2-|-2-|-4-|-x-|
A|-4-|-0-|-2-|-2-|-3-|
E|---|---|-0-|---|---|

Gtr.1 Gets some feedback

Play Chorus with violin part

Keep Playing Chorus
This Violin part comes in when he says 
"My Only One" and holds for a while
(played like Gtr. 1's Chorus but with some violin pattern)
Gtr.7
e|----|----|----|----|
B|-14-|-17-|-12-|-13-|
G|--x-|--x-|--x-|--x-|
D|-11-|-15-|--9-|-10-|
A|----|----|----|----|
E|----|----|----|----|

Ring with this
Gtr.1 , 2,  7
e|---|---|----|
B|---|---|----|
G|-6-|-6-|-14-|
D|-x-|-6-|--x-|
A|-4-|-4-|-11-|
E|---|---|----|

Ending(figure out timing)(kinda starts when Gtrs. are still ringing)
Gtr.4
e|-16~-----------------17--16~---------------------------------|
B|-----17~--14~---14-------------17~-----------12~---13~---14~-|
G|-------------------------------------------------------------|
D|-------------------------------------------------------------|
A|-------------------------------------------------------------|
E|-------------------------------------------------------------|
Gtr.5
e|-------------------------------------------------------------|
B|-------------------------------------------------------------|
G|-------------------------------------------------------------|
D|---------------------------------------------13~---13~---11~-|
A|---------------------12--14~---11--14------------------------|
E|-9~--11-12-9~----9-------------------------------------------|

7.)Miles Apart
Guitar 1
-----------
Intro:
e|---------------------------------------------------------------------------|
B|---------------------------------------------------------------------------|
G|---------------------------------------------------------------------------|
D|-0-0--x-x-x-x--0-0--0-0--5-5--x-x-x-x--5-5--5-5----------------------------|
A|-0-0--x-x-x-x--0-0--0-0--5-5--x-x-x-x--5-5--5-5----------------------------|
D|-0-0--x-x-x-x--0-0--0-0--5-5--x-x-x-x--5-5--5-5----------------------------|
                      . .                     . .

e|---------------------------------------------------------------------------|
B|---------------------------------------------------------------------------|
G|---------------------------------------------------------------------------|
D|-9-9--x-x-x-x--9-9--9-9--5-5--x-x-x-x--5-5--5-5----------------------------|
A|-9-9--x-x-x-x--9-9--9-9--5-5--x-x-x-x--5-5--5-5----------------------------|
D|-9-9--x-x-x-x--9-9--9-9--5-5--x-x-x-x--5-5--5-5----------------------------|
                      . .                     . .

Intro Cont'd:
e|---------------------------------------------------------------------------|
B|---------------------------------------------------------------------------|
G|---------------------------------------------------------------------------|
D|-0-0-0-0-0-0-0-0-0-0-0-0-0-0-0-0--5-5-5-5-5-5-5-5-5-5-5-5-5-5-5-5----------|
A|-0-0-0-0-0-0-0-0-0-0-0-0-0-0-0-0--5-5-5-5-5-5-5-5-5-5-5-5-5-5-5-5----------|
D|-0-0-0-0-0-0-0-0-0-0-0-0-0-0-0-0--5-5-5-5-5-5-5-5-5-5-5-5-5-5-5-5----------|

e|---------------------------------------------------------------------------|
B|---------------------------------------------------------------------------|
G|---------------------------------------------------------------------------|
D|-9-9-9-9-9-9-9-9-9-9-9-9-9-9-9-9--5-5-5-5-5-5-5-5-5-5-5-5-5-5-5-5----------|
A|-9-9-9-9-9-9-9-9-9-9-9-9-9-9-9-9--5-5-5-5-5-5-5-5-5-5-5-5-5-5-5-5----------|
D|-9-9-9-9-9-9-9-9-9-9-9-9-9-9-9-9--5-5-5-5-5-5-5-5-5-5-5-5-5-5-5-5----------|


Verse: "If I could i would do.."
e|---------------------------------------------------------------------------|
B|---------------------------------------------------------------------------|
G|---------------------------------------------------------------------------|
D|-7-7-7-7-7-7-7-7-7-7-7-7-7-7-7-7--5-5-5-5-5-5-5-5-5-5-5-5-5-5-5-5----------|
A|-5-5-5-5-5-5-5-5-5-5-5-5-5-5-5-5--3-3-3-3-3-3-3-3-3-3-3-3-3-3-3-3----------|
D|---------------------------------------------------------------------------|
   . . . . . . . . . . . . . . . .  . . . . . . . . . . . . . . . . 


Verse Cont'd: "Travel back in time with you..." 
e|---------------------------------------------------------------------------|  
B|---------------------------------------------------------------------------|
G|---------------------------------------------------------------------------|
D|---------------------------------------------------------------------------|
A|-2-2-2-2-2-2-2-2-2-2-2-2-2-2-2-2--5-5-5-5-5-5-5-5-5-5-5-5-5-5-5-5----------|
D|-2-2-2-2-2-2-2-2-2-2-2-2-2-2-2-2--5-5-5-5-5-5-5-5-5-5-5-5-5-5-5-5----------|
   . . . . . . . . . . . . . . . .  . . . . . . . . . . . . . . . .
 

Repeat Verse



Chorus: "We'll be miles apart..."
e|---------------------------------------------------------------------------| X3
B|---------------------------------------------------------------------------|
G|---------------------------------------------------------------------------|
D|-0-0-0-0-0-0-0-0-0-0-0-0-0-0-0-0--5-5-5-5-5-5-5-5-5-5-5-5-5-5-5-5----------|
A|-0-0-0-0-0-0-0-0-0-0-0-0-0-0-0-0--5-5-5-5-5-5-5-5-5-5-5-5-5-5-5-5----------|
D|-0-0-0-0-0-0-0-0-0-0-0-0-0-0-0-0--5-5-5-5-5-5-5-5-5-5-5-5-5-5-5-5----------|


Chorus Cont'd: "Always in my heart.."
e|---------------------------------------------------------------------------|
B|---------------------------------------------------------------------------|
G|---------------------------------------------------------------------------|
D|-9-9-9-9--7-7-7-7--5-5-5-5-------------------------------------------------|
A|-9-9-9-9--7-7-7-7--5-5-5-5-------------------------------------------------|
D|-9-9-9-9--7-7-7-7--5-5-5-5-------------------------------------------------|


Verse: "Now we've all grown up..."
e|---------------------------------------------------------------------------|
B|---------------------------------------------------------------------------|
G|-----7-----7-----7-----7------5-----5-----5-----5--------------------------|
D|-7-7-7-7-7-7-7-7-7-7-7-7--5-5-5-5-5-5-5-5-5-5-5-5--------------------------|
A|-5-5-5-5-5-5-5-5-5-5-5-5--3-3-3-3-3-3-3-3-3-3-3-3--------------------------|
D|---------------------------------------------------------------------------|
   . .   . .   . .   . .    . .   . .   . .   . .   


Verse Cont'd: "Nothing I can do about it..."
e|---------------------------------------------------------------------------|  
B|---------------------------------------------------------------------------|
G|---------------------------------------------------------------------------|
D|-----2-----2-----2-----2------5-----5-----5---5-5-5------------------------|
A|-2-2-2-2-2-2-2-2-2-2-2-2--5-5-5-5-5-5-5-5-5-5-5-5-5------------------------| 
D|-2-2-2-2-2-2-2-2-2-2-2-2--5-5-5-5-5-5-5-5-5-5-5-5-5------------------------|
   . .   . .   . .   . .    . .   . .   . .   .    


Repeat Verse without palm muting


Pre-Chorus:
e|---------------------------------------------------------------------------|
B|---------------------------------------------------------------------------|
G|---------------------------------------------------------------------------|
D|-0-0--x-x-x-x--0-0-x-x-x-x--0-0-x-x-x-x--0---------------------------------|
A|-0-0--x-x-x-x--0-0-x-x-x-x--0-0-x-x-x-x--0---------------------------------|
D|-0-0--x-x-x-x--0-0-x-x-x-x--0-0-x-x-x-x--0---------------------------------|
                       

Repeat Chorus


Bridge:
e|---------------------------------------------------------------------------|
B|---------------------------------------------------------------------------|
G|-------------------------------------9-------9-------9-----9---------------|
D|-----7-------7-------7-------7-------x-------x-------x-----x---------------|
A|-5-5-5-5-5-5-5-5-5-5-5-5-5-5-5-5/7-7-7-7-7-7-7-7-7-7-7-7-7-7---------------|
D|---------------------------------------------------------------------------|
                    
e|---------------------------------------------------------------------------|
B|---------------------------------------------------------------------------|
G|---------------------------------------------------------------------------|
D|-------12----------12----------11----------12------------------------------|
A|-10-10-10-10-10-10-10-10-10-10-10-10-10-10-10------------------------------|
D|---------------------------------------------------------------------------|

e|---------------------------------------------------------------------------|
B|---------------------------------------------------------------------------|
G|---------------------------------------------------------------------------|
D|-----7-------7-------7------5-5-5------------------------------------------|
A|-5-5-5-5-5-5-5-5-5-5-5-5-5--5-5-5------------------------------------------|
D|----------------------------5-5-5------------------------------------------|


Bridge Cont'd: "Give it up for just one..."
e|---------------------------------------------------------------------------| 
B|---------------------------------------------------------------------------|
G|---------------------------------------------------------------------------|
D|-0-0-0-0-0-0-0-0-0-0-0-0-0-0-0-0--2-2-2-2-2-2-2-2-2-2-2-2-2-2-2-2----------|
A|-0-0-0-0-0-0-0-0-0-0-0-0-0-0-0-0--2-2-2-2-2-2-2-2-2-2-2-2-2-2-2-2----------|
D|-0-0-0-0-0-0-0-0-0-0-0-0-0-0-0-0--2-2-2-2-2-2-2-2-2-2-2-2-2-2-2-2----------|

e|---------------------------------------------------------------------------| 
B|---------------------------------------------------------------------------|
G|---------------------------------------------------------------------------|
D|-5-5-5-5-5-5-5-5-5-5-5-5-5-5-5-5--0-0-0-0-0-0-0-0-0-0-0-0-0-0-0-0----------|
A|-5-5-5-5-5-5-5-5-5-5-5-5-5-5-5-5--0-0-0-0-0-0-0-0-0-0-0-0-0-0-0-0----------|
D|-5-5-5-5-5-5-5-5-5-5-5-5-5-5-5-5--0-0-0-0-0-0-0-0-0-0-0-0-0-0-0-0----------|


Theres no guitar 1 for this part


Repeat chorus until the song ends






GUITAR 2
-----------

Intro: (on the twentieth time play the last part on the tab)
e|---------------------------------------------------------------------------|X20
B|---------------------------------------------------------------------------|
G|-11--11--11--9--9--9--7--7-------------7/9\7/9\7/9\7/9---------------------|
D|-x---x---x---x--x--x--x--x-------------x-x-x-x-x-x-x-x---------------------|
A|-9---9---9---7--7--7--5--5-------------5/7\5/7\5/7\5/7---------------------|
D|---------------------------------------------------------------------------|


Guitar 3 (on the 12th time of the intro a 3rd guitar plays this)
e|---------------------------------------------------------------------------|X8
B|---------------------------------------------------------------------------|
G|-14--14--14---12--12--12---11-11-------------------------------------------|
D|-x---x---x----x---x---x----x--x-------(Do-the-same-thing-as-the-first------|
A|-12--12--12---10--10--10---9--9--------guitar-with-the-sliding-except------|
D|---------------------------------------with-the-last-two-chords-on-the-tab)|


Verse: "...All of this again..."
e|-14--10--15--14--10---14--10--15--14--10---14--10------14--10--------------|
B|---------------------------------------------------10----------------------|
G|---------------------------------------------------------------------------|
D|---------------------------------------------------------------------------|
A|---------------------------------------------------------------------------|
D|---------------------------------------------------------------------------|
  .    .   .   .   .    .    .   .  .    .   .   .   .   .   .

Verse Cont'd: "We could hide inside ourselves..."
e|-14--10--15--14-10-10--14--10--15--14-10-10--14--10-15--14--10-10-14-10----|
B|------------------------------------------------------------------------10-|
G|---------------------------------------------------------------------------|
D|---------------------------------------------------------------------------|
A|---------------------------------------------------------------------------|
D|---------------------------------------------------------------------------|
   .   .   .   .  .  .   .   .   .    .  . .   .    . .   .   .  .   .  . .
Pre-Chorus:
e|---------------------------------------------------------------------------|
B|---------------------------------------------------------------------------|
G|-11--11--11--9--9--9--7--7-------------------------------------------------|
D|-x---x---x---x--x--x--x--x-------------------------------------------------|
A|-9---9---9---7--7--7--5--5-------------------------------------------------|
D|---------------------------------------------------------------------------|


Chorus: "We'll be miles apart..."
e|---------------------------------------------------------------------------|
B|---------------------------------------------------------------------------|
G|-14-14-14-14-14-14-14--11-11-11-11-11-11-11-11-----------------------------|
D|-x--x--x--x--x--x--x---x--x--x--x--x--x--x--x------------------------------|
A|-12-12-12-12-12-12-12--9--9--9--9--9--9--9--9------------------------------|
D|---------------------------------------------------------------------------|


Chorus Cont'd: "I'll keep you deep inside..."
e|---------------------------------------------------------------------------| 
B|---------------------------------------------------------------------------|
G|-4-4-4-4-4-4-4-4--7-7-7-7-7-7-7-7------------------------------------------|
D|-x-x-x-x-x-x-x-x--x-x-x-x-x-x-x-x------------------------------------------|
A|-2-2-2-2-2-2-2-2--5-5-5-5-5-5-5-5------------------------------------------|
D|---------------------------------------------------------------------------|


Chorus Cont'd: "Your always in my heart..."
e|---------------------------------------------------------------------------| 
B|---------------------------------------------------------------------------|
G|-14-14-11-11-11-11-11-11-12-12-12-12-12-12-12------------------------------|
D|-x--x--x--x--x--x--x--x--x--x--x--x--x--x--x-------------------------------|
A|-12-12-9--9--9--9--9--9--10-10-10-10-10-10-10------------------------------|
D|---------------------------------------------------------------------------|


Repeat the Chorus all the way up until he sings "Your always in my heart" again 

Ending of Chorus: "Always in my heart..."
e|---------------------------------------------------------------------------|
B|---------------------------------------------------------------------------|
G|-11-11-11-11-11-11-9-9-9-9-9-9-7-7-7-7-7-7---------------------------------|
D|-x--x--x--x--x--x--x-x-x-x-x-x-x-x-x-x-x-x---------------------------------|
A|-9--9--9--9--9--9--7-7-7-7-7-7-5-5-5-5-5-5---------------------------------|
D|---------------------------------------------------------------------------|


Verse: "Now we've all grown up..."
e|-14--10--15--14--10---14--10--15--14--10---14--10------14--10--------------|
B|---------------------------------------------------10----------------------|
G|---------------------------------------------------------------------------|
D|---------------------------------------------------------------------------|
A|---------------------------------------------------------------------------|
D|---------------------------------------------------------------------------|
  .    .   .   .   .    .    .   .  .    .   .   .   .   .   .


Guitar 2 Repeats that


Guitar 3: "To bring us back to where..."
e|---------------------------------------------------------------------------|
B|---------------------------------------------------------------------------|
G|-14--14--14--14--14--14--14--14--14--12--12--12--12--12--12--12--12-12--12-|
D|-x---x---x---x---x---x---x---x---x---x---x---x---x---x---x---x---x--x---x--|
A|-12--12--12--12--12--12--12--12--12--10--10--10--10--10--10--10--10-10--10-|
D|---------------------------------------------------------------------------|


Repeat the pre-chorus until the last time then do this
e|---------------------------------------------------------------------------|
B|---------------------------------------------------------------------------|
G|-14--14--14---12--12--12---11-11-------------------------------------------|
D|-x---x---x----x---x---x----x--x--------------------------------------------|
A|-12--12--12---10--10--10---9--9--------------------------------------------|
D|---------------------------------------------------------------------------|


Repeat Chorus


Bridge: (no guitar 2)


Bridge Cont'd: "Give it up for just one more..." (kinda hard to hear)
e|---------------------------------------------------------------------------| X2
B|---------------------------------------------------------------------------|
G|-14-14-14-14-13-13-13-13-4-4-4-4-6-6-6-6-7-7-7-7-6-6-6-6-7-7-7-7-----------|
D|-x--x--x--x--x--x--x--x--x-x-x-x-x-x-x-x-x-x-x-x-x-x-x-x-x-x-x-x-----------|
A|-12-12-12-12-11-11-11-11-2-2-2-2-4-4-4-4-5-5-5-5-4-4-4-4-5-5-5-5-----------|
D|---------------------------------------------------------------------------|


Bridge Cont'd "Give it up for..."
e|-----5-----5---5-----3-----3---3-----2-----2----2-----0-----0-----0--------|
B|-3-3---3-3---3---3-3---3-3---3---3-3---3-3----3---3-3---3-3---3-3----------|
G|---------------------------------------------------------------------------|
D|---------------------------------------------------------------------------|
A|---------------------------------------------------------------------------|
D|---------------------------------------------------------------------------|

e|-----3-----3---3-----0-----0---0-------------------------------------------|
B|-3-3---3-3---3---3-3---3-3---3----3~---------------------------------------|
G|---------------------------------------------------------------------------|
D|---------------------------------------------------------------------------|
A|---------------------------------------------------------------------------|
D|---------------------------------------------------------------------------|


End with the Chorus

8.)Twentythree

                  ---Guitar 1---
Intro x2:
e-----9----------------------------------------
B----7-7-4-------------------------------------
G-4-6------4-6-8-8/9-8-6-4-6-8-8/9-4-6-4*-3----
D----------------------------------------------
A----------------------------------------------
E----------------------------------------------
  . .
Verse 1 (x2):
e-----------------------------------------------------
B-----------------------------------------------------
G--------------------------4-4-4--4-4-4---------------
D-2-2--2-2-2--2-2-2--2-2-2-4-4-4--4-4-4--4-4-4--4-4-4-
A-2-2--2-2-2--2-2-2--2-2-2-2-2-2--2-2-2--4-4-4--4-4-4-
E-0-0--0-0-0--0-0-0--0-0-0---------------2-2-2--2-2-2-
  ....................................................

e----------------------------------------------------------
B----------------------------------------------------------
G-------------------------------4-4-4--4-4-4---------------
D-----2-2--2-2-2--2-2-2--2-2-2--4-4-4--4-4-4--4-4-4--4-4-4-
A-----2-2--2-2-2--2-2-2--2-2-2--2-2-2--2-2-2--4-4-4--4-4-4-
E-7/1-0-0--0-0-0--0-0-0--0-0-0----------------2-2-2--2-2-2-
      .    ...    ...    ...    ...    ...    ...    ...

Pre Chorus (fast strumming):
e-----------------------------------------------------------
B-----------------------------------------------------------
G-------------------------4-4-4-4-4-4-----------------------
D-2-2-2-2-2-2-2-2-2-2-2-2-4-4-4-4-4-4-4-4-4-4-4-4-----------
A-2-2-2-0-0-0-2-2-2-0-0-0-2-2-2-2-2-2-4-4-4-4-4-4-----------
E-0-0-0-0-0-0-0-0-0-0-0-0-------------2-2-2-2-2-2-----------
        .....       .....       .....       .....

e------------------------------------------------------
B------------------------------------------------------
G-------------------------4-4-4-4-4-4------------------
D-2-2-2-2-2-2-2-2-2-2-2-2-4-4-4-4-4-4-4----------------
A-2-2-2-0-0-0-2-2-2-0-0-0-2-2-2-2-2-2-4----------------
E-0-0-0-0-0-0-0-0-0-0-0-0-------------2----------------
        .....       .....       .....       

Chorus (x2):
e------------------------------------------------------
B------------------------------------------------------
G-4-4-4-4-4-4-4-------------4-4-4-4-4-4-4--------------
D-4-4-4-4-4-4-4-2-2-2-2-2-2-4-4-4-4-4-4-4-4-4-4-4-4-4--
A-2-2-2-2-2-2-2-2-2-2-2-2-2-2-2-2-2-2-2-2-4-4-4-4-4-4--
E---------------0-0-0-0-0-0---------------2-2-2-2-2-2--

e------------------------------------------------------
B------------------------------------------------------
G-------------------9-9-9-9-9-11-11-11-11-11-----------
D-11-11-11-13-13-13-9-9-9-9-9-11-11-11-11-11-----------
A-11-11-11-13-13-13-7-7-7-7-7--9--9--9--9--9-----------
E--9--9--9-11-11-11------------------------------------

Post Chorus:
e-----9----------------------------------------
B----7-7-4-------------------------------------
G-4-6------4-6-8-8/9-8-6-4-6-8-8/9-4-6-4*-3----
D----------------------------------------------
A----------------------------------------------
E----------------------------------------------
  . .
Verse 2 (after first part of Verse do this)
e--------------------------------------------
B--------------------------------------------
G-4*-/9*/8/6/4*-8/6/4*--8/6/4*---------------
D-4*-/9*/8/6/4*-8/6/4*--8/6/4*---------------
A-2*-/7*/6/4/2*-6/4/2*--6/4/2*---------------
E--------------------------------------------

Pre Chorus (fast strumming):
e-----------------------------------------------------------
B-----------------------------------------------------------
G-------------------------4-4-4-4-4-4-----------------------
D-2-2-2-2-2-2-2-2-2-2-2-2-4-4-4-4-4-4-4-4-4-4-4-4-----------
A-2-2-2-0-0-0-2-2-2-0-0-0-2-2-2-2-2-2-4-4-4-4-4-4-----------
E-0-0-0-0-0-0-0-0-0-0-0-0-------------2-2-2-2-2-2-----------
        .....       .....       .....       .....

e------------------------------------------------------
B------------------------------------------------------
G-------------------------4-4-4-4-4-4------------------
D-2-2-2-2-2-2-2-2-2-2-2-2-4-4-4-4-4-4-4----------------
A-2-2-2-0-0-0-2-2-2-0-0-0-2-2-2-2-2-2-4----------------
E-0-0-0-0-0-0-0-0-0-0-0-0-------------2----------------
        .....       .....       .....       

Chorus (x2):
e------------------------------------------------------
B------------------------------------------------------
G-4-4-4-4-4-4-4-------------4-4-4-4-4-4-4--------------
D-4-4-4-4-4-4-4-2-2-2-2-2-2-4-4-4-4-4-4-4-4-4-4-4-4-4--
A-2-2-2-2-2-2-2-2-2-2-2-2-2-2-2-2-2-2-2-2-4-4-4-4-4-4--
E---------------0-0-0-0-0-0---------------2-2-2-2-2-2--

e------------------------------------------------------
B------------------------------------------------------
G-------------------9-9-9-9-9-11-11-11-11-11-----------
D-11-11-11-13-13-13-9-9-9-9-9-11-11-11-11-11-----------
A-11-11-11-13-13-13-7-7-7-7-7--9--9--9--9--9-----------
E--9--9--9-11-11-11------------------------------------

Bridge:
e------------------------------------------------------
B------------------------------------------------------
G-9-9-9-9-9-9-9/8/6/4/6--9-9-9-9-9-9-9/8/6/4/6---------
D-9-9-9-9-9-9-9/8/6/4/6--9-9-9-9-9-9-9/8/6/4/6---------
A-7-7-7-7-7-7-7/6/4/2/4--7-7-7-7-7-7-7/6/4/2/4---------
E------------------------------------------------------

e------------------------------------------------------
B------------------------------------------------------
G-9-9-9-9-9-8-8-8-6-6-6-4-4-4-6-6-6-8-8-8-------------- x2
D-9-9-9-9-9-8-8-8-6-6-6-4-4-4-6-6-6-8-8-8--------------
A-7-7-7-7-7-6-6-6-4-4-4-2-2-2-4-4-4-6-6-6--------------
E------------------------------------------------------
  ...   ...   ...   ...   ...   ...   ...

Pre Chorus (fast strumming):
e-----------------------------------------------------------
B-----------------------------------------------------------
G-------------------------4-4-4-4-4-4-----------------------
D-2-2-2-2-2-2-2-2-2-2-2-2-4-4-4-4-4-4-4-4-4-4-4-4-----------
A-2-2-2-0-0-0-2-2-2-0-0-0-2-2-2-2-2-2-4-4-4-4-4-4-----------
E-0-0-0-0-0-0-0-0-0-0-0-0-------------2-2-2-2-2-2-----------
        .....       .....       .....       .....

e------------------------------------------------------
B------------------------------------------------------
G-------------------------4-4-4-4-4-4------------------
D-2-2-2-2-2-2-2-2-2-2-2-2-4-4-4-4-4-4-4-4-4-4----------
A-2-2-2-0-0-0-2-2-2-0-0-0-2-2-2-2-2-2-4-4-4-4----------
E-0-0-0-0-0-0-0-0-0-0-0-0-------------2-2-2-2----------
        .....       .....       ..... .......      

Chorus (x2):
e------------------------------------------------------
B------------------------------------------------------
G-4-4-4-4-4-4-4-------------4-4-4-4-4-4-4--------------
D-4-4-4-4-4-4-4-2-2-2-2-2-2-4-4-4-4-4-4-4-4-4-4-4-4-4--
A-2-2-2-2-2-2-2-2-2-2-2-2-2-2-2-2-2-2-2-2-4-4-4-4-4-4--
E---------------0-0-0-0-0-0---------------2-2-2-2-2-2--

e------------------------------------------------------
B------------------------------------------------------
G-------------------9-9-9-9-9-11-11-11-11-11-----------
D-11-11-11-13-13-13-9-9-9-9-9-11-11-11-11-11-----------
A-11-11-11-13-13-13-7-7-7-7-7--9--9--9--9--9-----------
E--9--9--9-11-11-11------------------------------------

Ending:
e-----9----------------------------------------
B----7-7-4-------------------------------------
G-4-6------4-6-8-8/9-8-6-4-6-8-8/9-4-6-4*-3----
D----------------------------------------------
A----------------------------------------------
E----------------------------------------------

e-----9------------------------------------------------
B----7-7-4---------------------------------------------
G-4-6------4-6-8-8/9-8-6-4-6-8-8/9-6-4-6-4-4-4-4-4-3---
D----------------------------------------4-4-4-4-4-3---
A----------------------------------------2-2-2-2-2-1---
E------------------------------------------------------



=======================================================================
                              ----Guitar 2----

Intro x2 (start after 1st guitar part does 4-6):
e---9------------------------------------------
B--7-7-4---------------------------------------
G--------4-6-8-8/9-8-6-4-6-8-8/9-6-4-6-4*-3----
D----------------------------------------------
A----------------------------------------------
E----------------------------------------------

Verse 1 (x2):
e-----------------------------------------------------
B-----------------------------------------------------
G--------------------------4-4-4--4-4-4---------------
D-2-2--2-2-2--2-2-2--2-2-2-4-4-4--4-4-4--4-4-4--4-4-4-
A-2-2--2-2-2--2-2-2--2-2-2-2-2-2--2-2-2--4-4-4--4-4-4-
E-0-0--0-0-0--0-0-0--0-0-0---------------2-2-2--2-2-2-
  ....................................................

e----------------------------------------------------------
B----------------------------------------------------------
G-------------------------------4-4-4--4-4-4---------------
D-----2-2--2-2-2--2-2-2--2-2-2--4-4-4--4-4-4--4-4-4--4-4-4-
A-----2-2--2-2-2--2-2-2--2-2-2--2-2-2--2-2-2--4-4-4--4-4-4-
E-7/1-0-0--0-0-0--0-0-0--0-0-0----------------2-2-2--2-2-2-
      .    ...    ...    ...    ...    ...    ...    ...

Pre Chorus:
e------------------------------------------------------------------------
B------------------------------------------------------------------------
G-9/11-11--9/11-11--9/11-11--9/11-11--9/11-11--9/11-11--9/11-11--9/11-11-
D-9/11-11--9/11-11--9/11-11--9/11-11--9/11-11--9/11-11--9/11-11--9/11-11-
A-7/9--9---7/9--9---7/9--9---7/9--9---7/9--9---7/9--9---7/9--9---7/9--9--
E------------------------------------------------------------------------

Chorus (x2):
e------------------------------------------------------
B------------------------------------------------------
G-4-4-4-4-4-4-4-------------4-4-4-4-4-4-4--------------
D-4-4-4-4-4-4-4-2-2-2-2-2-2-4-4-4-4-4-4-4-4-4-4-4-4-4--
A-2-2-2-2-2-2-2-2-2-2-2-2-2-2-2-2-2-2-2-2-4-4-4-4-4-4--
E---------------0-0-0-0-0-0---------------2-2-2-2-2-2--

e------------------------------------------------------
B------------------------------------------------------
G-------------------9-9-9-9-9-11-11-11-11-11-----------
D-11-11-11-13-13-13-9-9-9-9-9-11-11-11-11-11-----------
A-11-11-11-13-13-13-7-7-7-7-7--9--9--9--9--9-----------
E--9--9--9-11-11-11------------------------------------

Post Chorus:
e-----9----------------------------------------
B----7-7-4-------------------------------------
G-4-6------4-6-8-8/9-8-6-4-6-8-8/9-4-6-4*-3----
D----------------------------------------------
A----------------------------------------------
E----------------------------------------------

Verse 2 (after first part of Verse do this)
e--------------------------------------------
B--------------------------------------------
G-4*-/9*/8/6/4*-8/6/4*--8/6/4*---------------
D-4*-/9*/8/6/4*-8/6/4*--8/6/4*---------------
A-2*-/7*/6/4/2*-6/4/2*--6/4/2*---------------
E--------------------------------------------

Pre Chorus:
e------------------------------------------------------------------------
B------------------------------------------------------------------------
G-9/11-11--9/11-11--9/11-11--9/11-11--9/11-11--9/11-11--9/11-11--9/11-11-
D-9/11-11--9/11-11--9/11-11--9/11-11--9/11-11--9/11-11--9/11-11--9/11-11-
A-7/9--9---7/9--9---7/9--9---7/9--9---7/9--9---7/9--9---7/9--9---7/9--9--
E------------------------------------------------------------------------

Chorus (x2):
e------------------------------------------------------
B------------------------------------------------------
G-4-4-4-4-4-4-4-------------4-4-4-4-4-4-4--------------
D-4-4-4-4-4-4-4-2-2-2-2-2-2-4-4-4-4-4-4-4-4-4-4-4-4-4--
A-2-2-2-2-2-2-2-2-2-2-2-2-2-2-2-2-2-2-2-2-4-4-4-4-4-4--
E---------------0-0-0-0-0-0---------------2-2-2-2-2-2--

e------------------------------------------------------
B------------------------------------------------------
G-------------------9-9-9-9-9-11-11-11-11-11-----------
D-11-11-11-13-13-13-9-9-9-9-9-11-11-11-11-11-----------
A-11-11-11-13-13-13-7-7-7-7-7--9--9--9--9--9-----------
E--9--9--9-11-11-11------------------------------------

Bridge:
e------------------------------------------------------
B------------------------------------------------------
G-9-9-9-9-9-9-9/8/6/4/6--9-9-9-9-9-9-9/8/6/4/6---------
D-9-9-9-9-9-9-9/8/6/4/6--9-9-9-9-9-9-9/8/6/4/6---------
A-7-7-7-7-7-7-7/6/4/2/4--7-7-7-7-7-7-7/6/4/2/4---------
E------------------------------------------------------

e------------------------------------------------------
B------------------------------------------------------
G-9-9-9-9-9-8-8-8-6-6-6-4-4-4-6-6-6-8-8-8-------------- x2
D-9-9-9-9-9-8-8-8-6-6-6-4-4-4-6-6-6-8-8-8--------------
A-7-7-7-7-7-6-6-6-4-4-4-2-2-2-4-4-4-6-6-6--------------
E------------------------------------------------------
  ...   ...   ...   ...   ...   ...   ...

Prechorus:
e------------------------------------------------------------------------
B------------------------------------------------------------------------
G-9/11-11--9/11-11--9/11-11--9/11-11--9/11-11--9/11-11--9/11-11--9/11-11-
D-9/11-11--9/11-11--9/11-11--9/11-11--9/11-11--9/11-11--9/11-11--9/11-11-
A-7/9--9---7/9--9---7/9--9---7/9--9---7/9--9---7/9--9---7/9--9---7/9--9--
E------------------------------------------------------------------------     

Chorus (x2):
e------------------------------------------------------
B------------------------------------------------------
G-4-4-4-4-4-4-4-------------4-4-4-4-4-4-4--------------
D-4-4-4-4-4-4-4-2-2-2-2-2-2-4-4-4-4-4-4-4-4-4-4-4-4-4--
A-2-2-2-2-2-2-2-2-2-2-2-2-2-2-2-2-2-2-2-2-4-4-4-4-4-4--
E---------------0-0-0-0-0-0---------------2-2-2-2-2-2--

e------------------------------------------------------
B------------------------------------------------------
G-------------------9-9-9-9-9-11-11-11-11-11-----------
D-11-11-11-13-13-13-9-9-9-9-9-11-11-11-11-11-----------
A-11-11-11-13-13-13-7-7-7-7-7--9--9--9--9--9-----------
E--9--9--9-11-11-11------------------------------------

Ending:
e---9------------------------------------------
B--7-7-4---------------------------------------
G--------4-6-8-8/9-8-6-4-6-8-8/9-6-4-6-4*-3----
D----------------------------------------------
A----------------------------------------------
E----------------------------------------------

e-----9------------------------------------------------
B----7-7-4---------------------------------------------
G-4-6------4-6-8-8/9-8-6-4-6-8-8/9-6-4-6-4-4-4-4-4-3---
D----------------------------------------4-4-4-4-4-3---
A----------------------------------------2-2-2-2-2-1---
E------------------------------------------------------

9.)View From Heaven


Gtr.1 - Standard
Gtr.2 - Standard
Gtr.3 - Standard(Violin and lead parts)

Gtr.1
Intro(repeat...with violin part too)	   (before violin) end ("I'm just so")
e|----3--3-3-3----3----3---3--3-3-3-----3----3--|-3-3-3-3-|-3-|------|
B|----3--3-3-3----3----3---3--3-3-3-----3----3--|-3-3-3-3-|-3-|------|
G|----0--0-0-0-0--0-0--0-0-0--0-0-0--0--0-0--0--|-0-0-0-0-|-0-|------|
D|-0--0--0-0-0-x--x-x--x-x-x--x-x-x--x--x-x--x--|-x-x-x-x-|-x-|------|
A|-x--x--x-x-x-3--3-2--2-0-0--0-0-0--3--3-2--2--|-3-3-2-0-|-3-|3/5-3-|
E|-3--3--3-3-3----------------------------------|---------|---|------|

Gtr.3
Violin intro
e|-------------------------------------------------------------|
B|-------------------------------------------------------------|
G|-------------------12-------12-------12-14-16-17-16-17-16-17-|
D|-9--10--11---12-14----12-14----12-14-------------------------|
A|-------------------------------------------------------------|
E|-------------------------------------------------------------|
cont'd
e|---------------------------------------------------------------------------|
B|-15h17p15\13h15p13\12h13p12\10h12p10-8v~------8---8-10-8-10-12-10-8-10-8---|
G|------------------------------------------7~----7------------------------7-|
D|---------------------------------------------------------------------------|
A|---------------------------------------------------------------------------|
E|---------------------------------------------------------------------------|
cont'd
e|----------------------------|
B|-8---8-10-8-7-7~--(7)h8v~---|
G|---7----------7~------------|
D|----------------------------|
A|----------------------------|
E|----------------------------|

Verse 1
Gtr.1
e|----3-3--3-3-3-------3-3--3-3-3-----0-0--0-0-0-----0-0--0-0-0-----0-0--0-0-0-|
B|----3-3--3-3-3-------3-3--3-3-3-----1-1--1-1-1-----1-1--1-1-1-----1-1--1-1-1-|
G|----0-0--0-0-0--0----0-0--0-0-0--0--0-0--0-0-0--0--0-0--0-0-0--0--0-0--0-0-0-|
D|-0--0-0--0-0-0--x----0-0--0-0-0--2--2-2--2-2-2--2--2-2--2-2-2--2--2-2--2-2-2-|
A|-x-------x-x-x--0h2--------------0--0-0--0-0-0--0--0-0--0-0-0--3--3-3--3-3-3-|
E|-3-------3-3-3---------------------------------------------------------------|
Gtr.2
e|----3-3--3-3-3------3-3--3-3-3-----0-0--0-0-0-----0-0--0-0-0-----0-0--0-0-0-|
B|----3-3--3-3-3------3-3--3-3-3-----1-1--1-1-1-----1-1--1-1-1-----1-1--1-1-1-|
G|----0-0--0-0-0------0-0--0-0-0--0--0-0--0-0-0--0--0-0--0-0-0--0--0-0--0-0-0-|
D|-0--0-0--0-0-0---0--0-0--0-0-0--2--2-2--2-2-2--2--2-2--2-2-2--2--2-2--2-2-2-|
A|-x-------x-x-x---x-------x-x-x--0--0-0--0-0-0--0--0-0--0-0-0--3--3-3--3-3-3-|
E|-3-------3-3-3---3-------3-3-3----------------------------------------------|
Gtr.1 cont'd
e|------0-0--0-0-0-----3-3--3-3-3-----3-3--3-3-3-|
B|------1-1--1-1-1-----3-3--3-3-3-----3-3--3-3-3-|
G|-0----0-0--0-0-0-----0-0--0-0-0--0--0-0--0-0-0-|
D|-0h2--2-2--2-2-2--0--0-0--0-0-0--0--0-0--0-0-0-|
A|-3----3-3--3-3-3--x-------x-x-x----------------|
E|------------------3-------3-3-3----------------|
Gtr.2 cont'd
e|-----0-0--0-0-0----3-3--3-3-3-----3-3--3-3-3-|
B|-----1-1--1-1-1----3-3--3-3-3-----3-3--3-3-3-|
G|--0--0-0--0-0-0----0-0--0-0-0-----0-0--0-0-0-|
D|--2--2-2--2-2-2-0--0-0--0-0-0--0--0-0--0-0-0-|
A|--3--3-3--3-3-3-x-------x-x-x--x-------x-x-x-|
E|----------------3-------3-3-3--3-------3-3-3-|

Gtr.3
Lead Riff (Gtr.1 plays intro with this)
e|-------------------------------------------------------------------|
B|-8p7-5---5---------------------------------------------------------|
G|-------7---7-5-4-5-4-2-4-2p0---------0-----0-2p0-4-x-5-x-4h5p4-2p0-|
D|-----------------------------2p0-0h2---0h2-------------------------|
A|-------------------------------------------------------------------|
E|-------------------------------------------------------------------|

e|----------------------------------------------------------------3~|
B|-8p7-5---5------------------------------------------5--5--3-----x-|
G|-------7---7-5-4-5-4-2-4-2p0---------0-----0--------7--7--5--4--4~|
D|-----------------------------2p0-0h2---0h2---2p0------------------|
A|------------------------------------------------------------------|
E|------------------------------------------------------------------|

Gtrs.1 and 2 Play Verse 1

End verse 1 with
("...gone")
e|-0~----------2~-|
B|-3~----------3~-|
G|-0~----------2~-|
D|-x-----------0~-|
A|-3~-------------|
E|----------------|

Chorus(strumming up and down)
Gtr.1
      4x                2x                 2x
e|-3-3-3-3-3-3-3-3-|-0-0-0-0-0-0-0-0-|-3-3-3-3-3-3-3-3-|
B|-3-3-3-3-3-3-3-3-|-0-0-0-0-0-0-0-0-|-3-3-3-3-3-3-3-3-|
G|-0-0-0-0-0-0-0-0-|-0-0-0-0-0-0-0-0-|-0-0-0-0-0-0-0-0-|
D|-----------------|-----------------|-----------------|
A|-----------------|-----------------|-----------------|
E|-----------------|-----------------|-----------------|
Gtr.2
     2x                  2x                 2x              2x
e|-3-3-3-3-3-3-3-3-|-3-3-3-3-3-3-3-3-|-0-0-0-0-0-0-0-0-|-3-3-3-3-3-3-3-3-|
B|-3-3-3-3-3-3-3-3-|-3-3-3-3-3-3-3-3-|-0-0-0-0-0-0-0-0-|-3-3-3-3-3-3-3-3-|
G|-0-0-0-0-0-0-0-0-|-0-0-0-0-0-0-0-0-|-0-0-0-0-0-0-0-0-|-0-0-0-0-0-0-0-0-|
D|-0-0-0-0-0-0-0-0-|-x-x-x-x-x-x-x-x-|-x-x-x-x-x-x-x-x-|-x-x-x-x-x-x-x-x-|
A|-----------------|-x-x-x-x-x-x-x-x-|-2-2-2-2-2-2-2-2-|-x-x-x-x-x-x-x-x-|
E|-----------------|-3-3-3-3-3-3-3-3-|-----------------|-3-3-3-3-3-3-3-3-|

Gtr.3
Violin intro w/ Variation(play with intro..ending with "Before Violin" part))
e|-------------------------------------------------------------|
B|-------------------------------------------------------------|
G|-------------------12-------12-------12-14-16-17-16-17-16-17-|
D|-9--10--11---12-14----12-14----12-14-------------------------|
A|-------------------------------------------------------------|
E|-------------------------------------------------------------|
cont'd
e|----------------------------------------------------------------------------|
B|-15h17p15\13h15p13\12h13p12\10h12p10-8v~------8---8-10-8-10-12-10-8-10-8-10-|
G|------------------------------------------7~----7---------------------------|
D|----------------------------------------------------------------------------|
A|----------------------------------------------------------------------------|
E|----------------------------------------------------------------------------|
cont'd
e|------------------------------------|
B|-12-----12-13-12-10-12~---13-15-----|
G|---------------------------------12~|
D|----12------------------------------|
A|------------------------------------|
E|------------------------------------|

Verse 2 ("..fire")
Gtr.1
e|-3~|--0~|--0~|----3-3--3-3-3-----3-3--3-3-3-|
B|-3~|--1~|--1~|----3-3--3-3-3-----3-3--3-3-3-|
G|-0~|--0~|--0~|----0-0--0-0-0--0--0-0--0-0-0-|
D|-0~|--2~|--2~|-0--0-0--0-0-0--0--0-0--0-0-0-|
A|-x-|--0~|--3~|-x-------x-x-x----------------|
E|-3~|----|----|-3-------3-3-3----------------|
Gtr.2
e|-3~|--0~|--0~|----3-3--3-3-3-----3-3--3-3-3-|
B|-3~|--1~|--1~|----3-3--3-3-3-----3-3--3-3-3-|
G|-0~|--0~|--0~|----0-0--0-0-0-----0-0--0-0-0-|
D|-0~|--2~|--2~|-0--0-0--0-0-0--0--0-0--0-0-0-|
A|-x-|--0~|--3~|-x-------x-x-x--x--x-x--x-x-x-|
E|-3~|----|----|-3-------3-3-3--3--3-3--3-3-3-|

Gtrs. 1 and 2 Play Verse 1

Gtr.3
Violin part (figure out timing)("..I only need one more day..")
e|-------|-----------------------|------------|-------------------------|
B|-------|--------12-13-12-------|-15------15-|-13-12----12-------------|
G|-12----|--12-14----------14-12-|----1212----|-------14----14-12-11-12~|
D|----12-|-----------------------|------------|-------------------------|
A|-------|-----------------------|------------|-------------------------|
E|-------|-----------------------|------------|-------------------------|

End verse with
("..you too..")
e|-0~----------2~-|
B|-3~----------3~-|
G|-0~----------2~-|
D|-x-----------0~-|
A|-3~-------------|
E|----------------|

Gtrs. 1 and 2 Play Chorus

Break part
Gtr.3										
e|15-15-15-15-15-15-|17-17-17-17-17-17-|-15-15-15-15-15-15-|-15-15-15-15-15-15-|
B|15-15-15-15-15-15-|15-15-15-15-15-15-|-15-15-15-15-15-15-|-15-15-15-15-15-15-|
G|------------------|------------------|-------------------|-------------------|
D|------------------|------------------|-------------------|-------------------|
A|------------------|------------------|-------------------|-------------------|
E|------------------|------------------|-------------------|-------------------
Gtr.1										
e|0--0--0--0--0--0-|-2--2--2--2--2--2-|--3--3--3--3--3--3-|--3--3--3--3--3--3--|
B|0--0--0--0--0--0-|-3--3--3--3--3--3-|--3--3--3--3--3--3-|--3--3--3--3--3--3--|
G|0--0--0--0--0--0-|-2--2--2--2--2--2-|--0--0--0--0--0--0-|--0--0--0--0--0--0--|
D|x--x--x--x--x--x-|-0--0--0--0--0--0-|--0--0--0--0--0--0-|--0--0--0--0--0--0--|
A|2--2--2--2--2--2-|-0--0--0--0--0--0-|--x--x--x--x--x--x-|--x--x--x--x--x--x--|
E|-----------------|------------------|--3--3--3--3--3--3-|--3--3--3--3--3--3--|

End Break with these
|-15-|       |-3-|
|-15-|       |-3-|
|----|       |-0-|
|----|Gtr.3  |-0-|Gtr.1
|----|       |---|
|----|       |---|

Gtr.3
Violin after "goodbye.."
e|-14h15p14------------------------|
B|----------15~-----\13--12--------|
G|--------------------------14--12-|
D|---------------------------------|
A|---------------------------------|
E|---------------------------------|

Gtrs.1 and 2 play chorus

Gtr.3 comes in ("I hope that all is well in Heaven..")
(Listen to song to figure out)
e|-3-3-3-3-3-3-3-3-3-3-3-3-3-3-3-3-3-3-3-3-3-3-3-3-3-3-3-3-3-3-3-3-3-|
B|-3-3-3-3-3-3-3-3-3-3-3-3-3-3-3-3-3-3-3-3-3-3-3-3-3-3-3-3-3-3-3-3-3-|
G|-0-0-0-0-0-0-0-0-0-0-0-0-0-0-0-0-0-0-0-0-0-0-0-0-0-0-0-0-0-0-0-0-0-|
D|-0-0-0-0-0-0-0-0-0-x-x-x-x-x-x-x-x-x-x-x-x-x-x-x-x-x-x-x-x-x-x-x-x-|
A|-x-x-x-x-x-x-x-x-x-3-------2-------0---------------2-------3-------|
E|-3-----------------------------------------------------------------|
cont'd
e|-0-0-0-0-0-0-0-0-0-0-0-0-0-0-0-0-3-3-3-3-3-3-3-3-3-3-3-3-3-3-3-3-|
B|-0-0-0-0-0-0-0-0-0-0-0-0-0-0-0-0-3-3-3-3-3-3-3-3-3-3-3-3-3-3-3-3-|
G|-0-0-0-0-0-0-0-0-0-0-0-0-0-0-0-0-0-0-0-0-0-0-0-0-0-0-0-0-0-0-0-0-|
D|-x-x-x-x-x-x-x-x-x-x-x-x-x-x-x-x-x-x-x-x-x-x-x-x-x-x-x-x-x-x-x-x-|
A|-x-x-x-x-x-x-x-x-2-------0-------3---------------3-------2-------|
E|-0-------------------------------3-------------------------------|
cont'd
3-3-3-3-3-3-3-3-|
3-3-3-3-3-3-3-3-|
0-0-0-0-0-0-0-0-|
0-0-0-0-0-0-0-0-|
x-x-x-x-x-x-x-x-|
3---------------|
cont'd
e|-3-3-3-3-3-3-3-3-3-3-3-3-3-3-3-3-3-3-3-3-3-3-3-3-0-0-0-0-0-0-0-0-|
B|-3-3-3-3-3-3-3-3-3-3-3-3-3-3-3-3-3-3-3-3-3-3-3-3-0-0-0-0-0-0-0-0-|
G|-0-0-0-0-0-0-0-0-0-0-0-0-0-0-0-0-0-0-0-0-0-0-0-0-0-0-0-0-0-0-0-0-|
D|-x-x-x-x-x-x-x-x-x-x-x-x-x-x-x-x-x-x-x-x-x-x-x-x-x-x-x-x-x-x-x-x-|
A|-3-------2-------0---------------2-------3-------x-x-x-x-x-x-x-x-|
E|-------------------------------------------------0---------------|
cont'd
e|-0-0-0-0-0-0-0-0-3-3-3-3-3-3-3-3-3-3-3-3-3-3-3-3-|
B|-0-0-0-0-0-0-0-0-3-3-3-3-3-3-3-3-3-3-3-3-3-3-3-3-|
G|-0-0-0-0-0-0-0-0-0-0-0-0-0-0-0-0-0-0-0-0-0-0-0-0-|
D|-x-x-x-x-x-x-x-x-x-x-x-x-x-x-x-x-x-x-x-x-x-x-x-x-|
A|-2-------0-------3-3-3-3-3-3-3-3-3-3-3-3-3-3-3-3-|
E|-----------------3-------------------------------|

Ending
Gtr.3										
e|15-15-15-15-15-15-|17-17-17-17-17-17-|-15-15-15-15-15-15-|-15-15-15-15-15-15-|
B|15-15-15-15-15-15-|15-15-15-15-15-15-|-15-15-15-15-15-15-|-15-15-15-15-15-15-|
G|------------------|------------------|-------------------|-------------------|
D|------------------|------------------|-------------------|-------------------|
A|------------------|------------------|-------------------|-------------------|
E|------------------|------------------|-------------------|-------------------
Gtr.1										
e|-0--0--0--0--0--0-|-2--2--2--2--2--2-|-3--3--3--3--3--3-|--3--3--3--3--3--3--|
B|-0--0--0--0--0--0-|-3--3--3--3--3--3-|-3--3--3--3--3--3-|--3--3--3--3--3--3--|
G|-0--0--0--0--0--0-|-2--2--2--2--2--2-|-0--0--0--0--0--0-|--0--0--0--0--0--0--|
D|-x--x--x--x--x--x-|-0--0--0--0--0--0-|-0--0--0--0--0--0-|--0--0--0--0--0--0--|
A|-2--2--2--2--2--2-|-0--0--0--0--0--0-|-x--x--x--x--x--x-|--x--x--x--x--x--x--|
E|------------------|------------------|-3--3--3--3--3--3-|--3--3--3--3--3--3--|

End Break with these
|-15-|       |-3-|
|-15-|       |-3-|
|----|       |-0-|
|----|Gtr.3  |-0-|Gtr.1
|----|       |---|
|----|       |---|

Gtr.3
Violin Ending
e|-14h15p14-----|
B|----------15~-|
G|--------------|
D|--------------|
A|--------------|
E|--------------|

10.)Inside Out
In Drop D tuning

Guitar 1 
Intro   This part played 2x
e|--------------------------------|--------------------------------|
b|--------------------------------|--------------------------------|
g|-7-7--7-7-7-7-7--7-7--7-7-7-7-7-|--------------------------------|
d|-7-7--7-7-7-7-7--7-7--7-7-7-7-7-|-2-2--2-2-2-2-2--2-2--2-2-2-2-2-|
a|-5-5--5-5-5-5-5--5-5--5-5-5-5-5-|-2-2--2-2-2-2-2--2-2--2-2-2-2-2-|
D|--------------------------------|-2-2--2-2-2-2-2--2-2--2-2-2-2-2-|

e|--------------------------------|--------------------------------|
b|--------------------------------|--------------------------------|
g|-4-4--4-4-4-4-4--4-4--4-4-4-4-4-|--------------------------------|
d|-4-4--4-4-4-4-4--4-4--4-4-4-4-4-|-5-5--5-5-5-5-5--5-5--5-5-5-5-5-|
a|-2-2--2-2-2-2-2--2-2--2-2-2-2-2-|-5-5--5-5-5-5-5--5-5--5-5-5-5-5-|
D|--------------------------------|-5-5--5-5-5-5-5--5-5--5-5-5-5-5-|

Verse (here, a little sympathy...)
No Guitar 1

Verse Cont'd (x4)
e|--------------------------------|
b|--------------------------------|
g|-7-7--7-7-7-6-6--7-7--7-7-7-6-6-|
d|-7-7--7-7-7-7-7--7-7--7-7-7-7-7-|
a|-5-5--5-5-5-5-5--5-5--5-5-5-5-5-|

Chorus
e|-----------------------------------------------------|
b|-----------------------------------------------------|
g|---------------------6-6--4-4~-----------------------|
d|-0-0-0-0---5-5--0-0~--6-6--4-4~--2-2--5-5~---0-0-0-0-|
a|-0-0-0-0---5-5--0-0~--4-4--2-2~--2-2--5-5~---0-0-0-0-|
D|-0-0-0-0---5-5--0-0~-------------2-2--5-5~---0-0-0-0-|
   . . . .                                     . . . .
e|------------------------------------|
b|------------------------------------|
g|------------------------------------|
d|-2-2-2-2--4-4-4-4--5-5-5-5--7-7-7-7-|
a|-2-2-2-2--4-4-4-4--5-5-5-5--7-7-7-7-|
D|-2-2-2-2--4-4-4-4--5-5-5-5--7-7-7-7-|

Verse 2 (Here, a little jealousy...)
Play Verse Cont'd 4x

Interlude
e|----------------------------|
b|----------------------------|
g|-7-------------2------------|
d|-7-x16--2------2-x16--5-----|
a|-5------2-x16--0------5-x16-|
D|--------2-------------5-----|

Chorus (x2)

Bridge 
No Guitar 1

Bridge Cont'd
e|--------------------------------|--------------------------------|
b|--------------------------------|--------------------------------|
g|-7-7--7-7-7-7-7--7-7--7-7-7-7-7-|--------------------------------|
d|-7-7--7-7-7-7-7--7-7--7-7-7-7-7-|-2-2--2-2-2-2-2--2-2--2-2-2-2-2-|
a|-5-5--5-5-5-5-5--5-5--5-5-5-5-5-|-2-2--2-2-2-2-2--2-2--2-2-2-2-2-|
D|--------------------------------|-2-2--2-2-2-2-2--2-2--2-2-2-2-2-|

e|--------------------------------|--------------------------------|
b|--------------------------------|--------------------------------|
g|-2-2--2-2-2-2-2--2-2--2-2-2-2-2-|--------------------------------|
d|-2-2--2-2-2-2-2--2-2--2-2-2-2-2-|-5-5--5-5-5-5-5--5-5--5-5-5-5-5-|
a|-0-0--0-0-0-0-0--0-0--0-0-0-0-0-|-5-5--5-5-5-5-5--5-5--5-5-5-5-5-|
D|--------------------------------|-5-5--5-5-5-5-5--5-5--5-5-5-5-5-|

Chorus (x3) (play the first part softly for the first time)

Outro
Play Intro

Ending
e|-----------|
b|-----------|
g|-----------|
d|-5-5--0-0~-|
a|-5-5--0-0~-|
D|-5-5--0-0~-|


Guitar 2

Intro (x8)  (Come in after Guitar is done with first set of D chords)
e|-----------------------|
b|-----------------------|
g|-----------------------|
d|-16-16--16-12h14-12h14-|
a|-----------------------|
D|-----------------------|

Verse and Verse Cont'd
No Guitar 2

Chorus 
Same as Guitar 1

Verse 2
e|--------------------------------|--------------------------------|
b|--------------------------------|--------------------------------|
g|-7-7--7-7-7-7-7--7-7--7-7-7-7-7-|--------------------------------|
d|-7-7--7-7-7-7-7--7-7--7-7-7-7-7-|-2-2--2-2-2-2-2--2-2--2-2-2-2-2-|
a|-5-5--5-5-5-5-5--5-5--5-5-5-5-5-|-2-2--2-2-2-2-2--2-2--2-2-2-2-2-|
D|--------------------------------|-2-2--2-2-2-2-2--2-2--2-2-2-2-2-|

e|--------------------------------|--------------------------------|
b|--------------------------------|--------------------------------|
g|-4-4--4-4-4-4-4--4-4--4-4-4-4-4-|--------------------------------|
d|-4-4--4-4-4-4-4--4-4--4-4-4-4-4-|-5-5--5-5-5-5-5--5-5--5-5-5-5-5-|
a|-2-2--2-2-2-2-2--2-2--2-2-2-2-2-|-5-5--5-5-5-5-5--5-5--5-5-5-5-5-|
D|--------------------------------|-5-5--5-5-5-5-5--5-5--5-5-5-5-5-|

Interlude
I can't tell how what he is playing goes, i'll figure it out and update

Chorus (x2)

Bridge (x6)
e|---7-----------|
b|-----10----8-7-|
g|--------11-----|
d|-0-------------|
a|---------------|
D|---------------|

Bridge Cont'd
Same as Guitar 1

Chorus (x3)

Outro
Play intro (x8)

Ending
Same as Guitar 1

11.)Believe
Tuning:DADGBe

GUITAR 1
------------

Intro(x2)-figure out the strumming

e|-----------------------------|
B|-----------------------------|
G|-----------------------------|
D|-4---0---7---2---------------|
A|-4---0---7---2---------------|
D|-4---0---7---2---------------|

Verse(x4)(Think about the love...)

e|----------------------------------------------------------|
B|----------------------------------------------------------|
G|----------------------------------------------------------|
D|-7-7--7-7-7---7-7--7-7-7---7-7--7-7-7----6-6--6-6-6-------|
A|-4-4--4-4-4---5-5--5-5-5---7-7--7-7-7----7-7--7-7-7-------|
D|----------------------------------------------------------|

Pre Chorus(x1)- figure out the strumming

e|----------------------------------|
B|----------------------------------|
G|----------------------------------|
D|-0-2-4-2----0--7--2--9------------|
A|-0-2-4-2----0--7--2--9------------|
D|-0-2-4-2----0--7--2--9------------|

Chorus-(Everything is gonna be alright...)(no guitar 1)

repeat Intro

repeat Verse

repeat Pre Chorus

Chorus-(no guitar 1)

Bridge(x10)

e|-----------------------------------------------------|
B|-----------------------------------------------------|
G|-----------------------------------------------------|
D|-----------------------------------------------------|
Al--9--11p9--12p9--11p9--12p9--11p9--12p9--11p9--------|
D|-----------------------------------------------------|

repeat Intro(x2) until violin solo

repeat Intro(x4)until Ryan stops singing

repeat Bridge(x4)until end of song

GUITAR 2
------------

Intro:not sure about sorry :(

1st part of Verse:(no guitar 2)

2nd part of Verse(Climbing Higher...)

e|--------------------------------------------------------|
B|--------------------------------------------------------|
G|-----9-----9-----9-----9-----9-----9-----9-----9--------|
D|-7-7---7-7---7-7---7-7---7-7---7-7---7-7---7-7----------|
A|--------------------------------------------------------|
D|--------------------------------------------------------|

Pre Chorus- figure out strumming

e|----------------------------------------------------------------------------|
B|----------------------------------------------------------------------------|
G|--7--9--11--13---14--9--7--14--9--4-----------------------------------------|
D|--x--x--x---x----x---x--x--x---x--x-----------------------------------------|
A|--5--7--9---11---12--7--5--12--7--2-----------------------------------------|
D|----------------------------------------------------------------------------|

Chorus

e|----------------------------------------------------------------------------|
B|----------------------------------------------------------------------------|
G|------2------------2------------2-----------2-----2-------------------------|
D|---------(x4)---------(x4)--------(x4)--------------------------------------|
A|--0-0-----------------------0-0---------------------------------------------|
D|---------------0-0----------------------2-2---2-2---2-2-2-2-2-2-------------|
    . .          . .          . .         . .   . .   . . . . . .

repeat Intro

repeat Verse

repeat Pre Chorus

repeat Chorus

Bridge: not sure about sorry :(

repeat Intro(x2) until violin solo

repeat Intro(x4) until Ryan stops singing

END OF SONG

12.)One Year, Six Months
Gtr.1 - Standard
Gtr.2 - Standard
Gtr.3 - Standard(Violin)
Gtr.4 - Standard
Gtr.5 - Standard
Gtr.6 - Standard(Violin)

Intro(figure out timing and strumming for both gtrs.)
Gtr.1
e|-----------------------------------------------------------------|
B|-15-15-x-13-x-12-x-10--10-10-10--10-10-10-10-13-13-x-12-x-10-x-8-|
G|--0--0-x--0-x--0-x--0---0--0--0---0--0--0--0--0--0-x--0-x--0-x-0-|
D|-----------------------------------------------------------------|
A|-----------------------------------------------------------------|
E|-----------------------------------------------------------------|
cont'd
e|-------------------------------------------------------------------|
B|--8-8-8--8-8-8-8/15-15-x-13-x-12-x-10-10-x-12-12-x-8-8-8-8-8-8-8-8-|
G|--0-0-0--0-0-0-0--0--0-x--0-x--0-x--0--0-x--0--0-x-0-0-0-0-0-0-0-0-|
D|-------------------------------------------------------------------|
A|-------------------------------------------------------------------|
E|-------------------------------------------------------------------|
cont'd
e|------------------|---|
B|-7-7-7-7-7-7-7-7/-|-8-|
G|-0-0-0-0-0-0-0-0--|-0-|
D|------------------|---|
A|------------------|---|
E|------------------|---|
Gtr.2(playing with Gtr.1)
e|-----------------------------------------------------------------|
B|-----------------------------------------------------------------|
G|-7-7-7-7-7-7-7-7-7-7-7-7-7-7-7-7-4-4-4-4-4-4-4-4-2-2-2-2-2-2-2-2-|
D|-5-5-5-5-5-5-5-5-4-4-4-4-4-4-4-4-2-2-2-2-2-2-2-2-0-0-0-0-0-0-0-0-|
A|-----------------------------------------------------------------|
E|-----------------------------------------------------------------|
cont'd
e|---------------------------------------------------------------|
B|---------------------------------------------------------------|
G|-------------------------------7-7-7-7-7-7-7-7-7-7-7-7-7-7-7-7-|
D|-5-5-5-5-5-5-5-5-x-5-5-x-5-5-x-5-5-5-5-5-5-5-5-4-4-4-4-4-4-4-4-|
A|-3-3-3-3-3-3-3-3-x-2-2-x-3-3-x-5-5-5-5-5-5-5-5-5-5-5-5-5-5-5-5-|
E|---------------------------------------------------------------|

Verse
Gtr.3
e|------------------------------------------------------------------|
B|-----3---------3-----3---------3-----3---------3------------------|
G|-----------0---------------0---------------0----------2-----0---2-|
D|-5-5---5-5---5---4-4---4-4---4---2-2---2-2---2----0-0---0-0---0---|
A|------------------------------------------------------------------|
E|------------------------------------------------------------------|
cont'd
e|--------------------------------|-----------------|-2nd---|
B|--------------------------------|-----------------|--time-|
G|-----0---------0-----0---------0|-----2-----0---2-|---2-0-|
D|-----------0---------------0----|-0-0---0-0---0---|-0-----|
A|-3-3---3-3---3---2-2---2-2---2--|-----------------|-hit a-|
E|--------------------------------|--this part 2x --|-bunch-|

Chorus
Gtr.2 (strumming pattern)
e|-----------------------------------------------------------------|
B|-----------------------------this part 2x then cont'd------------|
G|-0-0-0-0-0-0-0-0-0-0-0-0-0-0-0-0-0-0-0-0-0-0-0-0-0-0-0-0-0-0-0-0-|
D|-x-x-x-x-x-x-x-x-x-x-x-x-x-x-x-x-5-5-5-5-5-5-5-5-7-7-7-7-7-7-7-7-|
A|-2-2-2-2-2-2-2-2-5-5-5-5-5-5-5-5-3-3-3-3-3-3-3-3-5-5-5-5-5-5-5-5-|
E|-0-0-0-0-0-0-0-0-3-3-3-3-3-3-3-3---------------------------------|
cont'd
e|-----------------------------------------------------------------|
B|-----------------------------------------------------------------|
G|-0-0-0-0-0-0-0-0-0-0-0-0-0-0-0-0-0-0-0-0-0-0-0-0-0-0-0-0-0-0-0-0-|
D|-x-x-x-x-x-x-x-x-7-7-7-7-7-7-7-7-5-5-5-5-5-5-5-5-7-7-7-7-7-7-7-7-|
A|-2-2-2-2-2-2-2-2-5-5-5-5-5-5-5-5-3-3-3-3-3-3-3-3-5-5-5-5-5-5-5-5-|
E|-0-0-0-0-0-0-0-0-------------------------------------------------|
cont'd
e|-----------------------------------------------------------------|
B|-----------------------------------------------------------------|
G|-0-0-0-0-0-0-0-0-0-0-0-0-0-0-0-0-0-0-0-0-0-0-0-0-0-0-0-0-0-0-0-0-|
D|-x-x-x-x-x-x-x-x-x-x-x-x-x-x-x-x-5-5-5-5-5-5-5-5-7-7-7-7-7-7-7-7-|
A|-2-2-2-2-2-2-2-2-5-5-5-5-5-5-5-5-3-3-3-3-3-3-3-3-5-5-5-5-5-5-5-5-|
E|-0-0-0-0-0-0-0-0-3-3-3-3-3-3-3-3---------------------------------|
Gtr.1(plays with Gtr.2)(figure out timing and strumming)
e|-------------------------------------------------------------------|
B|-8-8-8-8-8-8-8-8-8-10-10-10-10-10-10-10-10/13-13-13-13-13-13-13-13-|
G|-0-0-0-0-0-0-0-0-0--0--0--0--0--0--0--0--0--0--0--0--0--0--0--0--0-|
D|-------------------------------------------------------------------|
A|-------------------------------------------------------------------|
E|-------------------------------------------------------------------|
cont'd
e|-------------------------|-----------------|-----------------|
B|\10-10-10-10-10-10-10-10-|-8-8-8-8-8-8-8-8-|\7-7-7-7-7-7-7-7-|
G|--0--0--0--0--0--0--0--0-|-0-0-0-0-0-0-0-0-|-0-0-0-0-0-0-0-0-|
D|-------------------------|-do this part 3x |-----------------|
A|-------------------------|------then next--|-----------------|
E|-------------------------|-----------------|-----------------|

Play Intro

Play Verse
Violin comes in
Gtr.3
e|----|-----|-------------|--------------|----|-----|
B|----|-----|-------------|--------------|----|-----|
G|-11-|-12~-|--11/12------|--11/12-------|----|-----|
D|--x-|--x--|---x--x--12~-|---x--x---10~-|-9~-|--12-|
A|--9-|-10~-|---9/10---x--|---9/10----x--|-x--|---x-|
E|----|-----|---------10~-|-----------8~-|-7~-|--10-|
this comes in(hit a bunch
Gtr.4
e|--------|
B|-----15-|
G|-0-0----|
D|--------|
A|--------|
E|--------|

Play Chorus with this
Gtr.3
e|--------------------------------------------------------------|
B|--------------------------------------------------------------|
G|-12------------11-------------------12-----14-------12---11---|
D|------12----12------12----12-----12----12------12----------12-|
A|---------10------------12-----14------------------------------|
E|--------------------------------------------------------------|
cont'd
e|-------------------------------------------------------------------|----|
B|-------------------------------------------------------------------|----|
G|-12----------------12--------9--------11------12--------14---12-11-|-12-|
D|----12----12----12----12---------12------12-------12---------------|----|
A|-------10----14----------------------------------------------------|----|
E|-------------------------------------------------------------------|----|

Gtr.1 only play intro


Bridge
Gtr.1
e|------------------------------------------------------------------------|
B|-15-15-x-13-x-12-x-10--1010101010101012-1212121212121210-10101010101010-|
G|--0--0-x--0-x--0-x--0---0-0-0-0-0-0-0-0--0-0-0-0-0-0-0-0--0-0-0-0-0-0-0-|
D|------------------------------------------------------------------------|
A|------------------------------------------------------------------------|
E|------------------------------------------------------------------------|
Gtr.5 comes in...(pattern with Gtr.1 too)
e|------------------------------------------------------------------------|
B|------------------------------------------------------------------------|
G|--0--0-x--0-x--0-x--0---0-0-0-0-0-0-0-0--0-0-0-0-0-0-0-0--0-0-0-0-0-0-0-|
D|-16-16-x-14-x-12-x-11--1111111111111112-1212121212121211-11111111111111-|
A|------------------------------------------------------------------------|
E|------------------------------------------------------------------------|
cont'd Gtr.1
e|-----------------------------------------------------------------|
B|-15-15-x-13-x-12-x-10--10-10-10--10-10-10-10-13-13-x-12-x-10-x-8-|
G|--0--0-x--0-x--0-x--0---0--0--0---0--0--0--0--0--0-x--0-x--0-x-0-|
D|-----------------------------------------------------------------|
A|-----------------------------------------------------------------|
E|-----------------------------------------------------------------|
Gtr.5
e|-----------------------------------------------------------------|
B|-----------------------------------------------------------------|
G|--0--0-x--0-x--0-x--0---0--0--0---0--0--0--0--0--0-x--0-x--0-x-0-|
D|-16-16-x-14-x-12-x-11--11-11-11--11-11-11-11-14-14-x-12-x-11-x-9-|
A|-----------------------------------------------------------------|
E|-----------------------------------------------------------------|
cont'd
e|-----------------|
B|--8-8-8--8-8-8-8/|
G|--0-0-0--0-0-0-0-|
D|-----------------|
A|-----------------|
E|-----------------|
Gtr.5
e|-----------------|
B|-----------------|
G|--0-0-0--0-0-0-0-|
D|--9-9-9--9-9-9-9/|
A|-----------------|
E|-----------------|
cont'd
Gtr.1
e|------------------------------------------------------------------------|
B|-15-15-x-13-x-12-x-10--1010101010101012-1212121212121210-10101010101010-|
G|--0--0-x--0-x--0-x--0---0-0-0-0-0-0-0-0--0-0-0-0-0-0-0-0--0-0-0-0-0-0-0-|
D|------------------------------------------------------------------------|
A|------------------------------------------------------------------------|
E|------------------------------------------------------------------------|
Gtr.5
e|------------------------------------------------------------------------|
B|------------------------------------------------------------------------|
G|--0--0-x--0-x--0-x--0---0-0-0-0-0-0-0-0--0-0-0-0-0-0-0-0--0-0-0-0-0-0-0-|
D|-16-16-x-14-x-12-x-11--1111111111111112-1212121212121211-11111111111111-|
A|------------------------------------------------------------------------|
E|------------------------------------------------------------------------|

Gtr.2(strumming pattern)(comes in some time)(play with Gtrs.1 and 5)
e|---|---|---|---|---|
B|---|---|---|---|---|
G|-0-|-0-|-0-|-0-|-0-|
D|-x-|-7-|-5-|-x-|-x-|
A|-5-|-5-|-3-|-2-|-5-|
E|-3-|---|---|-0-|-3-|
cont'd
e|---|---|---|---|
B|---|---|---|---|
G|-0-|-0-|-0-|-0-|
D|-x-|-7-|-5-|-7-|
A|-5-|-5-|-3-|-5-|
E|-3-|---|---|---|
Gtr.6 (comes in after Gtr.2 plays for 2nd time)
e|--------------------------------------------------------|
B|------12-15--15-15-x-13-x-12-x-10--10-12-10----10-12-15-|
G|-12-14--------------------------------------12----------|
D|--------------------------------------------------------|
A|--------------------------------------------------------|
E|--------------------------------------------------------|
cont'd
e|---------------------------------------------------------------------------|
B|13-13-x-12-x-10-x-8--8-10-8-7-8-10-12-15-15-x-13-x-12-x-10--10101010101010-|
G|---------------------------------------------------------------------------|
D|---------------------------------------------------------------------------|
A|---------------------------------------------------------------------------|
E|---------------------------------------------------------------------------|
cont'd
e|-----------------------------------|
B|-1212121212121212-1010101010101010-|
G|-----------------------------------|
D|-----------------------------------|
A|-----------------------------------|
E|-----------------------------------|

this comes in(hit a bunch
Gtr.4
e|--------|-----|
B|-----15-|--15-|
G|-0-0----|-0---|
D|--------|-----|
A|--------|-----|
E|--------|-----|
Gtr.3(timing)
e|----------------------------------------------------------|
B|----------------------------------------------------------|
G|----------------------------------------------------------|
D|-------12~---14~----12~---------------------12~----14--16-|
A|-10~----------------------14-12-14-15-14~-----------------|
E|----------------------------------------------------------|
cont'd
e|-----------------------------------------------------------------12-14-15-|
B|------15~----17~---15~---12----12-13-12~-----------------12-13-15---------|
G|-12~------------------------14--------------12~-----12-14-----------------|
D|--------------------------------------------------------------------------|
A|--------------------------------------------------------------------------|
E|--------------------------------------------------------------------------|
Gtr.2(figure out strumming and timing)
e|-----------------------------------------------------------------|
B|-----------------------------------------------------------------|
G|-0-0-0-0-0-0-0-0-0-0-0-0-0-0-0-0-0-0-0-0-0-0-0-0-0-0-0-0-0-0-0-0-|
D|-x-x-x-x-x-x-x-x-7-7-7-7-7-7-7-7-5-5-5-5-5-5-5-5-7-7-7-7-7-7-7-7-|
A|-2-2-2-2-2-2-2-2-5-5-5-5-5-5-5-5-3-3-3-3-3-3-3-3-5-5-5-5-5-5-5-5-|
E|-0-0-0-0-0-0-0-0-------------------------------------------------|
cont'd
e|-----------------------------------------------------------------|
B|-----------------------------------------------------------------|
G|-0-0-0-0-0-0-0-0-0-0-0-0-0-0-0-0-0-0-0-0-0-0-0-0-0-0-0-0-0-0-0-0-|
D|-x-x-x-x-x-x-x-x-x-x-x-x-x-x-x-x-5-5-5-5-5-5-5-5-7-7-7-7-7-7-7-7-|
A|-2-2-2-2-2-2-2-2-5-5-5-5-5-5-5-5-3-3-3-3-3-3-3-3-5-5-5-5-5-5-5-5-|
E|-0-0-0-0-0-0-0-0-3-3-3-3-3-3-3-3---------------------------------|

Play Chorus with everything(Gtr. 1 plays intro variation with Gtr.5)
Gtr.6 (comes in)
e|--------------------------------------------------------|
B|------12-15--15-15-x-13-x-12-x-10--10-12-10----10-12-15-|
G|-12-14--------------------------------------12----------|
D|--------------------------------------------------------|
A|--------------------------------------------------------|
E|--------------------------------------------------------|
cont'd
e|---------------------------------------------------------------------------|
B|13-13-x-12-x-10-x-8--8-10-8-7-8-10-12-15-15-x-13-x-12-x-10--10101010101010-|
G|---------------------------------------------------------------------------|
D|---------------------------------------------------------------------------|
A|---------------------------------------------------------------------------|
E|---------------------------------------------------------------------------|
cont'd
e|-----------------------------------|
B|-1212121212121212-1010101010101010-|
G|-----------------------------------|
D|-----------------------------------|
A|-----------------------------------|
E|-----------------------------------|

End with Gtr.2(strumming pattern)
e|-----------------------------------------------------------------|
B|-----------------------------------------------------------------|
G|-7-7-7-7-7-7-7-7-7-7-7-7-7-7-7-7-4-4-4-4-4-4-4-4-2-2-2-2-2-2-2-2-|
D|-5-5-5-5-5-5-5-5-4-4-4-4-4-4-4-4-2-2-2-2-2-2-2-2-0-0-0-0-0-0-0-0-|
A|-----------------------------------------------------------------|
E|-----------------------------------------------------------------|
cont'd
e|-----------------------------------|
B|-----------------------------------|
G|---------------------------------7~|
D|-5-5-5-5-5-5-5-5-5-5-5-5-5-5-5-5-5~|
A|-3-3-3-3-3-3-3-3-2-2-2-2-2-2-2-2-5~|
E|-----------------------------------|

13.)Back Home
Drop D

                            <==Gtr.1==>

Intro
e|----------------------------------------------------------------------|
b|---3-3-3--3-2-2-2-2---------------------------------------------------|
g|---4-4-4--4-2-2-2-2----14-14-14-x-x-12-12-11------7-7---------7-7-7-7-|
d|---4-4-4--4-2-2-2-2-----x--x--x-x-x--x--x-x-------7-7---------7-7-7-7-|
a|-2---------------------12-12-12-x-x-10-10-9-----5-5-5-0-0-0-0-5-5-5-5-|
D|--------------------0-------------------------5-5-5-5-0-0-0-0-5-5-5-5-|

Intro cont.
e|-------------------------------------------------------------------|
b|---3-3-3--3-2-2-2-2------------------------------------------------|
g|---4-4-4--4-2-2-2-2----14-14-14-x-x-12-12-11------7-7--------------|
d|---4-4-4--4-2-2-2-2-----x--x--x-x-x--x--x-x-------7-7--------------|
a|-2---------------------12-12-12-x-x-10-10-9-----5-5-5-0-0-0--5-5-0-|
D|--------------------0-------------------------5-5-5-5-0-0-0--5-4-0-|

Verse
e|-------------------------------------|
b|-------------------------------------|
g|-------------------------------------|
d|-7--7-7--7-7-7--7-7--7-7-7-x-x-7-7-7-|(x2)
a|-5--5-5--5-0-4--4-4--4-4-5-x-x-4-4-5-|
D|-------------------------------------|

Pre-Chorus
e|---------------------------------------------------------------|
b|---------------------------------------------------------------|
g|-2---2---2---2---0---0---0---0---2---2---2---2---0---0---0---0-|
d|---0---0---0---0---0---0---0---0---0---0---0---0---0---0---0---|
a|---------------------------------------------------------------|
D|---------------------------------------------------------------|

Chorus
e|--------------------------------------------------------------------|
b|--------------------------------------------------------------------|
g|--------------------------------------------------------------------|
d|-0-0-0-0-0-0-0-0--5-5-5-5-5-5-5-5--0-0-0-0-0-0-0-0--5-5-5-5-5-5-5-5-|
a|-0-0-0-0-0-0-0-0--5-5-5-5-5-5-5-5--0-0-0-0-0-0-0-0--5-5-5-5-5-5-5-5-|
D|-0-0-0-0-0-0-0-0--5-5-5-5-5-5-5-5--0-0-0-0-0-0-0-0--5-5-5-5-5-5-5-5-|

e|--------------------------------------------------------------------|
b|--------------------------------------------------------------------|
g|--------------------------------------------------------------------|
d|-0-0-0-0-0-0-0-0--5-5-5-5-5-5-5-5--7-7-7-7-7-7-7-7--5-5-5-5-5-5-5-5-|
a|-0-0-0-0-0-0-0-0--5-5-5-5-5-5-5-5--7-7-7-7-7-7-7-7--5-5-5-5-5-5-5-5-|
D|-0-0-0-0-0-0-0-0--5-5-5-5-5-5-5-5--7-7-7-7-7-7-7-7--5-5-5-5-5-5-5-5-|

Interlude: Repeat the intro cont. part x1

Verse
e|-------------------------------------|
b|-------------------------------------|
g|-------------------------------------|
d|-7--7-7--7-7-7--7-7--7-7-7-x-x-7-7-7-|(x2)
a|-5--5-5--5-0-4--4-4--4-4-5-x-x-4-4-5-|
D|-------------------------------------|

Pre-Chorus
e|---------------------------------------------------------------|
b|---------------------------------------------------------------|
g|-2---2---2---2---0---0---0---0---2---2---2---2---0---0---0---0-|
d|---0---0---0---0---0---0---0---0---0---0---0---0---0---0---0---|
a|---------------------------------------------------------------|
D|---------------------------------------------------------------|

Chorus
e|--------------------------------------------------------------------|
b|--------------------------------------------------------------------|
g|--------------------------------------------------------------------|
d|-0-0-0-0-0-0-0-0--5-5-5-5-5-5-5-5--0-0-0-0-0-0-0-0--5-5-5-5-5-5-5-5-|
a|-0-0-0-0-0-0-0-0--5-5-5-5-5-5-5-5--0-0-0-0-0-0-0-0--5-5-5-5-5-5-5-5-|
D|-0-0-0-0-0-0-0-0--5-5-5-5-5-5-5-5--0-0-0-0-0-0-0-0--5-5-5-5-5-5-5-5-|

e|--------------------------------------------------------------------|
b|--------------------------------------------------------------------|
g|--------------------------------------------------------------------|
d|-0-0-0-0-0-0-0-0--5-5-5-5-5-5-5-5--7-7-7-7-7-7-7-7--5-5-5-5-5-5-5-5-|
a|-0-0-0-0-0-0-0-0--5-5-5-5-5-5-5-5--7-7-7-7-7-7-7-7--5-5-5-5-5-5-5-5-|
D|-0-0-0-0-0-0-0-0--5-5-5-5-5-5-5-5--7-7-7-7-7-7-7-7--5-5-5-5-5-5-5-5-|

Breakdown
e|------------------|
b|------------------|
g|------------------|
d|-0---------0------|
a|-0---0-0---0------|
D|-0---0-0---0--12/-|
       . .
       
Bridge 
e|------------------------------------|
b|------------------------------------|
g|------------------------------------|
d|-9-9-9--7-7-7-0-0--5-5-5--------0-0-|(x3)
a|-9-9-9--7-7-7-0-0--5-5-5--5-5-5-0-0-|
D|-9-9-9--7-7-7-0-0--5-5-5--4-4-4-0-0-|

Bridge cont.
e|---------------------------------------------------------|
b|---------------------------------------------------------|
g|---------------------------------------------------------|
d|-9-9-9--7-7-7-0-0----------------------------------------|
a|-9-9-9--7-7-7-0-0--5-5--0~~~~~~~~~~~~--------------------|
D|-9-9-9--7-7-7-0-0--5-4--0~~~~~~~~~~~~---5~-----0~-----5~-|

Chorus
e|--------------------------------------------------------------------|
b|--------------------------------------------------------------------|
g|--------------------------------------------------------------------|
d|-0-0-0-0-0-0-0-0--5-5-5-5-5-5-5-5--7-7-7-7-7-7-7-7--5-5-5-5-5-5-5-5-|
a|-0-0-0-0-0-0-0-0--5-5-5-5-5-5-5-5--7-7-7-7-7-7-7-7--5-5-5-5-5-5-5-5-|
D|-0-0-0-0-0-0-0-0--5-5-5-5-5-5-5-5--7-7-7-7-7-7-7-7--5-5-5-5-5-5-5-5-|

e|--------------------------------------------------------------------|
b|--------------------------------------------------------------------|
g|--------------------------------------------------------------------|
d|-0-0-0-0-0-0-0-0--5-5-5-5-5-5-5-5--0-0-0-0-0-0-0-0--5-5-5-5-5-5-5-5-|
a|-0-0-0-0-0-0-0-0--5-5-5-5-5-5-5-5--0-0-0-0-0-0-0-0--5-5-5-5-5-5-5-5-|
D|-0-0-0-0-0-0-0-0--5-5-5-5-5-5-5-5--0-0-0-0-0-0-0-0--5-5-5-5-5-5-5-5-|

e|--------------------------------------------------------------------|
b|--------------------------------------------------------------------|
g|--------------------------------------------------------------------|
d|-0-0-0-0-0-0-0-0--5-5-5-5-5-5-5-5--7-7-7-7-7-7-7-7--5-5-5-5-5-5-5-5-|
a|-0-0-0-0-0-0-0-0--5-5-5-5-5-5-5-5--7-7-7-7-7-7-7-7--5-5-5-5-5-5-5-5-|
D|-0-0-0-0-0-0-0-0--5-5-5-5-5-5-5-5--7-7-7-7-7-7-7-7--5-5-5-5-5-5-5-5-|

Outro
e|-----------------------------------------------------------------|
b|---3-3-3--3-2-2-2-2----------------------------------------------|
g|---4-4-4--4-2-2-2-2----14-14-14-x-x-12-12-11------7-7------------|
d|---4-4-4--4-2-2-2-2-----x--x--x-x-x--x--x-x-------7-7------------|
a|-2---------------------12-12-12-x-x-10-10-9-----5-5-5-0-0--5-5-0~|
D|--------------------0-------------------------5-5-5-5-0-0--5-4-0~|



=====================================================================
                        BACK HOME---YELLOWCARD
=====================================================================
                            <==Gtr.2==>


Intro(after :10 seconds)
e|---------------------------------------------------------------|
b|---------------------------------------------------------------|
g|-7-7-7-7--6-6-6----11-11-x-x-9-9--7----------------------------|
d|-x-x-x-x--x-x-x-----x--x-x-x-x-x--x----5-5-5-5-----------------|
a|-5-5-5-5--4-4-4-----9--9-x-x-7-7--5----5-5-5-5--0-0-0-0--5-5-0-|
D|-----------------0------------------0--5-5-5-5--0-0-0-0--5-4-0-|

Verse (hit these haromonic notes right after intro, when gtr.1 plays first chord)
note-this part isn't in any other tab and if you listen to the left speaker you'll ear it
e|----|
b|-7*-|
g|-7*-|
d|----|
a|----|
D|----|

Pre-Chorus
e|--------------------------------------------|
b|--------------------------------------------|
g|-7-7-7-7-7--7-7-7-7-7--7-7-7-7-7--7-7-7-7-7-|
d|-7-7-7-7-7--7-7-7-7-7--7-7-7-7-7--7-7-7-7-7-|
a|-5-5-5-5-5--5-5-5-5-5--5-5-5-5-5--5-5-5-5-5-|
D|--------------------------------------------|

Chorus
e|--------------------------------------------------------------------------|
b|--------------------------------------------------------------------------|
g|-7-7-7-7-7-7-7-7-7-7-7-7-7-7-7-7-12-12-12-12-12-12-12-12-12-12-12-9-9-9-9-|
d|-x-x-x-x-x-x-x-x-x-x-x-x-x-x-x-x--x--x--x--x--x--x--x--x--x--x--x-x-x-x-x-|
a|-5-5-5-5-5-5-5-5-5-5-5-5-5-5-5-5-10-10-10-10-10-10-10-10-10-10-10-7-7-7-7-|
D|--------------------------------------------------------------------------|

e|-------------------------------------------------------------------------|
b|-------------------------------------------------------------------------|
g|-7-7-7-7-7-7-7-7-7-7-7-7-7-7-7-7-12-12-12-12-12-12-12-12-12-12-12-12-12--|
d|-x-x-x-x-x-x-x-x-x-x-x-x-x-x-x-x--x--x--x--x--x--x--x--x--x--x--x--x--x--|
a|-5-5-5-5-5-5-5-5-5-5-5-5-5-5-5-5-10-10-10-10-10-10-10-10-10-10-10-10-10--|
D|-------------------------------------------------------------------------|

e|-------------------------------------|
b|-------------------------------------|
g|-9-9-9-9-9-9-9-9-9-9-9-9-9-9-9-9-12~-|
d|-x-x-x-x-x-x-x-x-x-x-x-x-x-x-x-x--x--|
a|-7-7-7-7-7-7-7-7-7-7-7-7-7-7-7-7-10~-|
D|-------------------------------------|

Interlude: Gtr.1

Verse

Pre-chorus

Chorus

Breakdown: Gtr.1

Bridge: Gtr.1

Chorus
e|--------------------------------------------------------------------|
b|--------------------------------------------------------------------|
g|--------------------------------------------------------------------|
d|-0-0-0-0-0-0-0-0--5-5-5-5-5-5-5-5--7-7-7-7-7-7-7-7--5-5-5-5-5-5-5-5-|
a|-0-0-0-0-0-0-0-0--5-5-5-5-5-5-5-5--7-7-7-7-7-7-7-7--5-5-5-5-5-5-5-5-|
D|-0-0-0-0-0-0-0-0--5-5-5-5-5-5-5-5--7-7-7-7-7-7-7-7--5-5-5-5-5-5-5-5-|

e|--------------------------------------------------------------------|
b|--------------------------------------------------------------------|
g|--------------------------------------------------------------------|
d|-0-0-0-0-0-0-0-0--5-5-5-5-5-5-5-5--0-0-0-0-0-0-0-0--5-5-5-5-5-5-5-5-|
a|-0-0-0-0-0-0-0-0--5-5-5-5-5-5-5-5--0-0-0-0-0-0-0-0--5-5-5-5-5-5-5-5-|
D|-0-0-0-0-0-0-0-0--5-5-5-5-5-5-5-5--0-0-0-0-0-0-0-0--5-5-5-5-5-5-5-5-|

e|--------------------------------------------------------------------|
b|--------------------------------------------------------------------|
g|--------------------------------------------------------------------|
d|-0-0-0-0-0-0-0-0--5-5-5-5-5-5-5-5--7-7-7-7-7-7-7-7--5-5-5-5-5-5-5-5-|
a|-0-0-0-0-0-0-0-0--5-5-5-5-5-5-5-5--7-7-7-7-7-7-7-7--5-5-5-5-5-5-5-5-|
D|-0-0-0-0-0-0-0-0--5-5-5-5-5-5-5-5--7-7-7-7-7-7-7-7--5-5-5-5-5-5-5-5-|

Outro:Gtr.1
comments
print report bad tab
14 comments total. Showing first comments.
0 reply
Blinkrules828 wrote on July 20 2004, 12:00 am

dude u just copied all the tabs and made them into one for the album u can only take like 10% credit for this

0 reply
Bong Water wrote on July 20 2004, 12:00 am

mate what about giving credit to everyone else? you should have posted the names and emails of the people who did the tabs to be fair.

0 reply
Bong Water wrote on July 20 2004, 12:00 am

and for that matter, asking for permission from the tab owners to stamp your name on them

I want to post or [tab]
guest
You may want to rate the tab now too:
select rating
Please do not post tabs as comments. Select "correction" instead!