Oops, an error
Loading. Please wait.

Close To The Edge Bass Tab

by Yes
ver2
ver2

Whole song

Interactive

More versions @911Tabs.com
3,116 views 12 this week
no commentswrite comment
1 2 3 4 5
accurate
x 2
add to favorites launch autoscroll
font size
0
reset
Autoscroll
+/-
esc
set tempo
stop
Contributor
WARNING: You are trying to view
                                    content from Ultimate-Guitar.com
                                    in an unauthorized application,
                                    which is prohibited.

                                    Please use an official Ultimate
                                    Guitar Tabs application for iPhone,
                                    iPad or Android to access legitimate
                                    chords, guitar, bass, and drum tabs
                                    from Ultimate-Guitar.com database.

                                    Type "ultimate guitar tabs" in Apple
                                    App Store's or Android Market's
                                    search to find the application.
Yes
Close to the Edge
bass tab


  0.56   intro   4:4   t:70
|------------|------------|------------|------------|-=----------|15-18-19==--|
|------------|------------|------------|---11-12-14-|14-15-17-19-|------------|
|------------|------------|7=-8--10-12-|13----------|------------|------------|
|0--1--3--5--|6--9--10-12-|------------|------------|------------|------------|

  1.21   mad riff                    4 : 4  -3-
|------------------------------------------------|
|2-----3-----5-----7-----9-----11----12----14----|x
|--2-----3-----5-----7-----9-----11----12----14--|11
|----0-----1-----3-----5-----7-----9-----10----12|

  1.27               ----------------------------|
                      --9-----12-----14----12----|\
                       ---9-----12-----14----12--|2
                        ----7-----10-----12----10|
  1.54
|------------------------------------------------------|    "aah"
|2-----3-----5-----7-----9-----11----12----14----------|\   9 : 8  
|--2-----3-----5-----7-----9-9---11.---12.-------------|9   - 3 -
|----0-----1-----3-----5-------------------------------|

  2.08   "aah-ahh"
|------------------------------------`-.---------|
|2-----3-------5-------------------------`-.-----|\
|--2-----3-----------------------------------`-.-|12
|----0-----1-.-----------------------------------|

  2.12                               2.17
|--------------------------------| |-----------------------------|
|-^^^--------7---9--10--12--14---| |-------------.9..11..12..14..|*  improv.
|765.8--.X98.---.-9.-10.-12.-14.\| |7..8--10..12-----------------|*  var.
|--------------------------------| |-----------------------------|

  2.25
|------------------------|------------------------|------------------------|
|------------------------|------------------------|------------------------|
|------------------------|------------------------|7---..8-----10....12....|
|0-----1-----3-----5-----|6----.9-----10----12----|------------------------|

|----------9-------------|-^----------------------|15--..18....19..........|
|------11..-.12....14....|14....15....17....19....|------------------------|
|13....------------------|------------------------|------------------------|
|------------------------|------------------------|------------------------|

                             2.51   t:100      \\...t:70        6:8 //..t:85
                           |----------------|7---------------||----------:-|
                           |---^7--^8--^10-^|---^12----------||------------|
                           |--78--78--78--78|--------13------||------------|
                           |----------------|------------13\-||6-----------|

  2.58      t:85       12 : 8                                     6:8
|------------|------------|------------|------------| |------------|------------|
|------------|------------|------------|------------| |-8---86--6--|-6---68--8--|
|5-.3-.2-----|--.3-.2-----|--------.6-.|5-----------| |6--6---6---6|4--4---8---:|
|--------.5-.|3-------.5-.|3-.1-.0-----|--.8-.6-.6--| |------------|------------|

|------------|------------|------------|------------| |---8--------|---6--------|
|------------|------------|------------|12.10.8-:-:-| |-8---86-6--6|-6---68-----|
|5-`3-`2-----|------------|------------|------------| |6------6--6-|4------8----|
|--------`5-`|3-/8-`7-`5-`|3-`1-`0-----|------------| |------------|--------6---|

  3.44   6:8   8:8                 \\...t:70
|---------..-|-----------..-.|---------------|
|-----------.|---------------|---------------|
|5--4--3-----|2--0-----2-----|---------------|
|------------|------3--------|1--------------|
    t:88
  3.54   verse 1       6 : 8     4.18   
|------------------------|     |------------------------|------------------------|
|----------------19--19\-|x    |------------------------|------------------------|
|------------------------|11   |------------------------|------------------------|
|5---5-.-5-.-5/----------|     |3-----------------------|------------------------|

  4.22    ^ x6
                           4 : 4                  4:4
             |------------------------11------||----------------|----------------|
  4.35       |----------7---------9/----------||----------------|----------------|
 chorus 1    |7---7-7-5---5---5/7-------------||----------------|----------------|
             |----------------------------7---||----------------|----------------|

             |------------------------11------||----------------|----------------|
             |-----^----7-----5/7-9/----------||----------------|----------------|
             |7---7-0-5---5-------------------||----------------|----------------|
             |----------------------------7---||----------------|----------------|

  4.53     bridge 1      6:8
|------------|------------|------------|--2-0-------|------------|------------|------------|
|3-----------|------------|--------33--|2-----2-0---|-----------^|-------23---|------------|
|--------5^--|3-----3--^--|------------|----------3/|5---------35|3-----3-----|------------|
|------------|--------535-|1-----------|------------|--1---------|------------|------------|

|------------|------------|------------|------------|------------|------------|------------|
|------------|------------|------------|--7-5-------|------------|------------|------------|
|8-----\-5^--|3-----3----^|--------8---|7-----7-5-3/|5-------5---|-------78---|------------|
|------------|----------35|1-----------|------------|--1---------|8-----8-----|------------|

|------------|------------|------------|------------|------------|------------|------------|
|------------|------------|--------3---|2-2/7-5-----|------------|-------23---|------------|
|8-------5---|3-----3-----|------------|--------7534|5-------5---|3-----3-----|------------|
|------------|----------3-|1-----------|------------|--1---------|------------|------------|

           4 : 4                                                     6 : 8
  5.39       |------------------------9-------|------------------------|
 chorus 2    |-----^----5-------5/7/9---------|------------------------|
             |5---5-0-3---3---------------7-7-|7---------------7-7-7-7-|
             |--------------------------------|------------------------|

             |----------------------7-9-------|------------------------|
             |-----^----5-----5/7/9-----------|------------------------|
             |5---5-0-3---3---------------7-7-|7-7-7-7-7-7-7-7-7-7-7-7-|
             |--------------------------------|------------------------|

          5:4                  6:8          7:8
  5.50  |--------------------|------------|--------------|--------------|--------------|
        |--------------------|------------|--------------|--------------|--------------|
        |8-----7-----765-5---|3-----2-----|0-------------|--------------|--------------|
        |--------------------|------------|--------3-----|1-------------|--------------|
     6.03   verse 2   t:95         2 : 4    
|----------------|----------------|----------------|----------------|
|----------------|----------------|--^-------------|----------------|x
|-^-------^------|----------------|10-9------^-----|----------------|4
|8-7-----3-5-----|----------------|--------10-12---|----0-------0---|

|----------------|----------------|----------------|----------------|----------------|
|----------------|----------------|----------------|----------------|----------------|
|-^-------^------|----------------|10--------------|----------------|----------------|
|8-7-----3-5-----|----------------|----------------|----------------|----------------|

|----------------|----------------|----------------|----------------|
|----------------|----------------|--^-------------|----------------|x
|-^-------^------|----------------|10-9------^-----|----------------|2
|8-7-----3-5-----|----------------|--------10-12---|----0-------0---|

  "     6.46    ||------------|------------|------------|------------|
         6:8    ||------------|------------|------------|--5---------|
                ||7-----------|5-----------|-^^---------|57-7-----050|
     refrain    ||------------|------------|535------357|------------|

        6.55     |------------|------------|------------|----------5-|
                 |------------|------------|------------|---57--357-0|
                 |7---------..|5-----------|----30------|357---------|
                 |------------|------------|-135-----135|------------|

        7.03     |------------|------------|------------|
                 |------------|------------|7-----------|
                 |7-----------|5-----------|-7-------5--|
                 |------------|------------|--57--8-----|

  7.09   bridge 2   6:8
|------------|------------|------------|--4-2-------|------------|7-----------|------------|
|------------|------------|------5---4-|------4-2-02|4-5--------7|-------45---|------------|
|7-------7---|5-----------|------------|------------|--------7---|------5-----|------------|
|------------|----------7\|3-----------|------------|------------|------------|------------|

|------------|------------|------------|--4-2-------|------------|------------|------------|
|5-----------|------------|------5---4-|------4-2-02|4-5---------|-------45---|------------|
|------7---5-|------4-----|------------|------------|--------7---|5-----5-----|------------|
|------------|----------7\|3-----------|------------|------------|------------|------------|

           4 : 4                                                     6 : 8
             |------------------------11------|------------------------|
    7.40     |----------7-------7-9-11--------|------------------------|*
  chorus 3   |7---7-7-5---5---------------9-9-|9---9-9-9---9-9-9-9-9-9-|*
             |--------------------------------|------------------------|

  7.50       5:4                                               6:4   4:4
|--------------------|----------------.---|------------------------|----------------|
|--------------------|--------------------|------------------------|----------------|
|10----9-------7-----|5-----3-----2-------|---------------------02-|3-2-0-----------|
|--------------------|--------------------|5-----3-------------3--3|------3-5301----|

                                         8.04    |-----------------|----------------|  |-
                                                 |3-2-0------------|----------------|x |--
                                                 |------3-530---02-|3-2-0-----------|4 |---
                                                 |-----------3-3--3|------3-5301----|  |0---
bridge
chorus
no bass
    14.12   key solo       6:8     t:95
|------------|------------|------------|------------|------------|------------|
|------------|------------|------------|------------|------------|------------|
|------------|------------|------------|------------|4.....4.....|4..4..4..4..|
|2-2-2-2-2-2-|2-2-2-2-2-2-|2-2-2-2-2-2-|2-2-2-2-2-2-|------------|------------|

                          |------------|------------|------------|------------|
                  14.25   |------------|------------|------------|------------|
                          |------------|------------|4.....4.....|4..4../////-|
                          |2-2-2-2-2-2-|2-2-2-2-2-2-|------------|------------|
  14.34
|------------|------------|------------|------------|------------|------------|
|------------|------------|------------|------------|------------|------------|
|------------|------------|------------|------------|4..4..4..4..|4..4..4///--|
|2..2.-2..2..|2..2..2..2..|2..2..2..2..|2..2..2..2..|------------|------------|

|------------|    14.50   |------------|------------|------------|------------|
|------------|            |------------|------------|------------|------------|
|------------|            |2-----------|0-----------|10----------|8-----------|
|2222--222222|            |------------|------------|------------|------------|

\\...t:88     14.59   |------------------------|    |------------|------------|
              6 : 8   |----------------19--19\-|x   |------------|------------|
                      |0---0---12--0-----------|8   |7-----------|5-----------|
        improv. var.  |------------------------|    |------------|------------|

              15.21   |--------|--------|--------|  |------------|------------|
                2:4   |--------|--------|--------|  |------------|------------|
                      |0-------|0-------|0-------|  |7-----------|5-----------|
                      |----0---|----0---|----0---|  |------------|------------|

              15.30   |------------------------|    |------------|------------|  
              6 : 8   |----------------19--19\-|x   |------------|------------|
                      |0---0---12--0-----------|8   |7-----------|5-----------|
                      |------------------------|    |------------|------------|

  15.53   end verse             2 : 4    
|----------------|----------------|----------------|----------------|
|----------------|----------------|--^-------------|----------------|x
|-^-------^------|----------------|10-9------^-----|----------------|4
|8-7-----3-5-----|----------------|--------10-12---|----------------|

                     16.10  |--------|--------|--------|------------|
                       2:4  |5-------|5-------|5-------|5-------5---|  6:8
                            |----5---|----5---|----5---|----5-------|
                            |--------|--------|--------|------------|
  16.17    6 : 8
|------------------------|  |------------------------|------------------------|
|----------------19--19\-|x |---------------...19\---|------------------------|
|0---0---0---0-----------|5 |0---0---0---------------|------------------------|
|------------------------|  |------------------------|7-------7-------7-------|

  16.32   end bridge
|------------------------|------------------------|------------------------|
|8-----------------------|------------------------|------------8-------8-8-|
|----------------10------|8-----------8-------6-6-|------------------------|
|------------------------|------------------------|6---6-------------------|

|----7-------------------|------------------------|------------------------|
|7-------10-8-7----------|----8---8---------------|--------------7-8------8|
|----------------10-9-8--|10--------------10----10|8-----------10----------|
|------------------------|------------------------|------------------------|

                                                  |10--10------------------|
                                                  |--8---8-8-8-8-8---------|
                                                  |----------------8-8-8---|
  16.48                                           |------------------------|
  end chorus      6 : 8     4 : 4
|------------------------|--------------------------------|
|8-------8-------8-------|7---------------7-------7-------|
|------------------------|--------------0-----0-----0-0---|
|------------------------|--------------------------------|

|------------------------|--------------------14----------|
|------------------------|------------14------------------|
|10------10------10------|12------------------------------|
|------------------------|--------------------------------|

                         |--------------------------------|
                         |--------15----------17----------|
                         |13--------------15----15--------|
                         |--------------------------------|
  17.01          7 : 8
|----------------------------|----------------------------|
|----------------------------|----------------------------|
|----------------10------12--|12--121110------10----1012--|
|15------13------------------|--------------------10------|

                  6 : 8     4 : 4               \\...t:77
|------------------------|--------------------------------|
|------------------------|--------------------------------|
|10--10--9-9-9---10101010|--------------------------------|
|------------------------|10------------------------------|

  17.15          5:4                                             6:4
|--------------------| |--------------------|------------------------|
|--------------------| |--------------------|------------------------|x
|--------------------| |8-----7-----5-------|------------------------|3
|6-------0-----------| |--------------------|8-----6-----------------|
   


standard tuning (EADG)

| /  slide up
| \  slide down

| .   incidental note (usually open string)
| ^   pre-struck note (hammer-on, pull-off)
| =   rest

| X   10
| E   11
| T   12
| H   13
| F   14


display in fixed-width font
one space ("-") = 1/16 note

tabbed by
spaceyhippie
dudeman.net/jam

comments
We did not receive enough feedback on this tab! Please rate:
print report bad tab
1 2 3 4 5
I want to post or [tab]
guest
You may want to rate the tab now too:
select rating
Please do not post tabs as comments. Select "correction" instead!