Oops, an error
Loading. Please wait.

Future Times Rejoice Bass Tab

by Yes
ver1
ver1

Whole song

Interactive

More versions @911Tabs.com
760 views 1 this week
no commentswrite comment
1 2 3 4 5
please rate
Autoscroll
+/-
esc
set tempo
stop
Contributor
Difficulty
advanced
WARNING: You are trying to view
                                    content from Ultimate-Guitar.com
                                    in an unauthorized application,
                                    which is prohibited.

                                    Please use an official Ultimate
                                    Guitar Tabs application for iPhone,
                                    iPad or Android to access legitimate
                                    chords, guitar, bass, and drum tabs
                                    from Ultimate-Guitar.com database.

                                    Type "ultimate guitar tabs" in Apple
                                    App Store's or Android Market's
                                    search to find the application.
Future Times /Rejoice - Yes
 
Stanard tuning

Duration Legend
---------------
W - whole
H - half
Q - quarter
E - 8th
S - 16th
T - 32nd
X - 64th
. - note dotted
|-n-|  - n-tuplets
     Intro                                                                      
     H.              W                E     S Q.     Q    S    S Q    S Q.      
G||---------------|----------------------|----2------4----L-|--L-6----L-7--|
D||---------------|----------------------|------------------|--------------|
A||---------------|----------------------|--0-L------L----L-|--L-L----L-L--|
E||---------------|----------------------|------------------|--------------|


  E.  S E  E.  S E  E.  S E     Q.     S E.     E.  Q.     E  S  
-----------------------------|-----------4---|--L---6------7--7-|
---------------5-L------5-L--|--7------------|------------------|
--7---5-L--7--------7--------|---------------|------------------|
-----------------------------|---------------|------------------|


  E.  S E  E.  S E  E.  S E     Q    Q    E  Q.        H        Q    Q     
-----------------------------|-------7----7--7------|-----------7----7----|
---------------5-L------5-L--|----------------------|---------------------|
--7---5-L--7--------7--------|--5-------------------|--5------------------|
-----------------------------|----------------------|---------------------|


  S S S S S S S S S S S S S S S S    S S S S S S S S S S S S S S S S  
----------------------------------|----------------------------------|
----------------------------------|----------------------------------|
--5-5-5-5-5-5-5-5-5-5-5-5-5-5-5-5-|--5-5-5-5-5-5-5-5-5-5-5-5-5-5-5-5-|
----------------------------------|----------------------------------|


  S S S S S S S S S S S S S S S S    S S S S S S S S S S S S S S S S  
----------------------------------|----------------------------------|
----------------------------------|----------------------------------|
--5-5-5-5-5-5-5-5-5-5-5-5-5-5-5-5-|--5-5-5-5-5-5-5-5-5-5-5-5-5-5-5-5-|
----------------------------------|----------------------------------|


  S S S S S S S S S S S S S S S S    S S S S S S S S S S S S S S S S  
----------------------------------|----------------------------------|
----------------------------------|----------------------------------|
--5-5-5-5-5-5-5-5-5-5-5-5-5-5-5-5-|--5-5-5-5-5-5-5-5-5-5-5-5-5-5-5-5-|
----------------------------------|----------------------------------|


  S S S S S S S S S S S S S S S S    S S S S S S S S S S S S S S S S  
----------------------------------|----------------------------------|
----------------------------------|----------------------------------|
----------------------------------|----------------------------------|
--3-3-3-3-3-3-3-3-3-3-3-3-3-3-3-3-|--3-3-3-3-3-3-3-3-3-3-3-3-3-3-3-3-|


  S S S S S S S S S S S S S S S S    S S S S S S S S S S E  S E.   
----------------------------------|-------------------------------|
----------------------------------|-------------------------------|
--5-5-5-5-5-5-5-5-5-5-5-5-5-5-5-5-|--5-5-5-5-5-5-5-5-5-5----------|
----------------------------------|----------------------0--L-2---|


  First Verse                                                            
  E           Q.     S S S S S S S S    S S S S S S S S S S S S S S S S  
-------------------------------------|----------------------------------|
-------------------------------------|----------------------------------|
-------------------------------------|----------------------------------|
--3-----------3------3-3-3-3-3-3-3-3-|--3-3-3-3-3-3-3-3-3-3-3-3-3-3-3-3-|


  Q    S E.  Q    S E.     Q    Q    S E.  E  E     H        Q    S E.   
------------------------|------------------------|----------------------|
------------------------|------------------------|----------------------|
--5----5-5---5----5-5---|--5----5----5-5---5-----|----------------------|
------------------------|---------------------2--|--3--------3----3-3---|


  Q    Q    Q    S E.     Q    Q    E  Q.        Q    Q    E  E  S E.   
-----------------------|----------------------|--7----7----7--7----7---|
-----------------------|----------------------|------------------------|
-----------------------|--5----5----5--5------|------------------------|
--3----3----3----3-3---|----------------------|------------------------|


  H        Q    S E.     Q    Q    Q    S E.     Q    Q    E  Q.      
----------------------|-----------------------|----------------------|
----------------------|-----------------------|----------------------|
----------------------|-----------------------|--5----5----5---------|
--3--------3----3-3---|--3----3----3----3-3---|---------------5------|


                          Chorus                                  
  Q.     E  H             W                    Q    H.            
----------------------|--------------------|---------------------|
----------------------|--------------------|---------------------|
--5------5--5s--------|--17----------------|---L-----------------|
----------------------|--------------------|---------------------|


   S  S  S  S  S  S  S  S  S  S  S  S  S  S  S  S  
--19-19-19-19-19-19-19-19-19-19-19-19-19-19-19-19-|
--------------------------------------------------|
--------------------------17----------------------|
--------------------------------------------------|


   S  S  S  S  S  S  S  S  S  S  S  S  S  S  S  S  
--19-19-19-19-19-19-19-19-19-19-19-19-19-19-19-19-|
--------------------------------------------------|
--------------------------------------------------|
--------------------------------------------------|


   S  S  S  S  S  S  S  S  S  S  S  S  S  S  S  S  
--19-19-19-19-19-19-19-19-19-19-19-19-19-19-19-19-|
--------------------------------------------------|
--------------------------------------------------|
--------------------------------------------------|


   S  S  S  S  S  S  S  S  S  S  S  S  S  S  S  S  
--19-19-19-19-19-19-19-19-19-19-19-19-19-19-19-19-|
--------------------------------------------------|
--------------------------------------------------|
--------------------------------------------------|


   S  S  S  S  S  S  S  S  S  S  S  S  S  S  S  S  
--19-19-19-19-19-19-19-19-19-19-19-19-19-19-19-19-|
--------------------------------------------------|
--------------------------------------------------|
--------------------------------------------------|


   S  S  S  S  S  S  S  S  S  S  S  S  S  S  S  S  
--19-19-19-19-19-19-19-19-19-19-19-19-19-19-19-19-|
--------------------------------------------------|
--------------------------------------------------|
--------------------------------------------------|


   S  S  S  S  S  S  S  S  S  S  S  S  S  S  S  S  
--19-19-19-19-19-19-19-19-19-19-19-19-19-19-19-19-|
--------------------------------------------------|
--------------------------------------------------|
--------------------------------------------------|


   S  S  S  S  S  S  S  S  S  S  S  S  S  S  S  S  
--19-19-19-19-19-19-19-19-19-19-19-19-19-19-19-19-|
--------------------------------------------------|
--------------------------------------------------|
--------------------------------------------------|


   S  S  S  S  S  S  S  S  S  S  S  S  S  S  S  S  
--------------------------------------------------|
--------------------------------------------------|
--17-17-17-17-17-17-17-17-17-17-17-17-17-17-17-17-|
--------------------------------------------------|


                                            Interlude                 
   S  S  S  S  S  S  S  E   S  E.   E.      Q         Q    Q    Q     
-----------------------------------------|---------------------------|
-----------------------------------------|---------------------------|
--17-17-17-17-17-17-17-17--17-17---17\---|---------------------------|
-----------------------------------------|--3---------3----3----3----|


  Q    Q    Q    Q       Q    E.  S E.  S E.  S    E.  S E.  S E.  S Q     
----------------------|-------------------------|-------------------------|
----------------------|-------------------------|-------------------------|
----------------------|--5----5---5-5---5-5---5-|--5---5-5---5-5---5-5----|
--3----3----3----3----|-------------------------|-------------------------|


  Q    Q    Q    Q       Q    Q    Q    Q       Q    Q    Q    S S S S  
----------------------|----------------------|-------------------------|
----------------------|----------------------|-------------------------|
----------------------|----------------------|--5----5----5----5-4-2---|
--3----3----3----3----|--3----3----3----3----|-----------------------5-|


  >       >       >       >        
  S S S S S S S S S S S S S S S S  
----------------------------------|
--0-------0-------0-------0-------|
----4-2-0---4-2-0---4-2-0---4-2-0-|
----------------------------------|


  Second Verse                                
  >                  >       >       >        
  S            S S S S S S S S S S S S S S S  
---------------------------------------------|
--0------------------0-------0-------0-------|
---------------4-2-0---4-2-0---4-2-0---4-2-0-|
---------------------------------------------|


  >       >       >       >          >       >       >       >        
  S S S S S S S S S S S S S S S S    S S S S S S S S S S S S S S S S  
----------------------------------|----------------------------------|
--0-------0-------0-------0-------|--0-------0-------0-------0-------|
----4-2-0---4-2-0---4-2-0---4-2-0-|----4-2-0---4-2-0---4-2-0---4-2-0-|
----------------------------------|----------------------------------|


  >       >       >       >          >       >       >       >        
  S S S S S S S S S S S S S S S S    S S S S S S S S S S S S S S S S  
----------------------------------|--0-------0-------0-------0-------|
--0-------0-------0-------0-------|----4-2-0---4-2-0---4-2-0---4-2-0-|
----4-2-0---4-2-0---4-2-0---4-2-0-|----------------------------------|
----------------------------------|----------------------------------|


  >       >       >       >          >       >       >       >        
  S S S S S S S S S S S S S S S S    S S S S S S S S S S S S S S S S  
--0-------0-------0-------0-------|----------------------------------|
----4-2-0---4-2-0---4-2-0---4-2-0-|--0-------0-------0-------0-------|
----------------------------------|----4-2-0---4-2-0---4-2-0---4-2-0-|
----------------------------------|----------------------------------|


  Q    Q    Q    S E.     Q    Q    Q    Q       Q    Q    Q    Q     
-------7----7----x-7---|----------------------|----------------------|
--0--------------------|----------------------|----------------------|
-----------------------|----------------------|----------------------|
-----------------------|--3----3----3----3----|--3----3----3----3----|


  Q    Q    Q    S E.     E.  S Q    S E.   
-----------------------|-------------------|
-----------------------|-------------------|
--5----5----5----5-----|------2-L----L-4---|
-------------------5---|--L----------------|


                                         Third Verse                            
   E    E.   S  S  S  E.   S  E.   S     E.          S  E.   S  E.   S  E.   S  
------/16---14-12--------------------|-------------------------------------|
------------------14-12---14-12---14-|--12--------14-12---14-12---14-12-14-|
--10---------------------------------|-------------------------------------|
-------------------------------------|-------------------------------------|


   E.   S  E.   S  E.   S  E.   S     E.   S  E.   S  E.   S  E.   S  
----------------------------------|----------------------------------|
--12---14-12---14-12---14-12---14-|--12---14-12---14-12---14-12---14-|
----------------------------------|----------------------------------|
----------------------------------|----------------------------------|


   S  S  E.   S  E.   S  E.   S  S  S     E.   S  E.   S  E.   S  E.   S  
--------------------------------------|----------------------------------|
--12-14-12---14-12---14-12---14-12----|----------------------------------|
-----------------------------------14-|--10---12-10---12-10---12-10---12-|
--------------------------------------|----------------------------------|


   E.   S  E.   S  S  S  E   E   E      E.   S  E.   S  E.   S  S  S  E   
------------------------------------|------------------------------------|
--------------------------------12--|--12---14-12---14-12---14-12-14-12--|
--10---12-10---12-10-12-10--12------|------------------------------------|
------------------------------------|------------------------------------|


   W                   Q    Q    Q    Q       Q    Q    Q    S E.   
--------------------|----------------------|-----------------------|
---L----------------|----------------------|-------------------5---|
--------------------|----------------------|-----------------------|
--------------------|--3----3----3----3----|--3----3----3----L-----|


                                                 Outro            
  Q    Q    Q    Q       Q    Q    Q    S E.     Q     Q    Q     
----------------------|-------7----7------7---|------------------|
----------------------|-----------------------|------------------|
--5----5----5----5----|--5--------------------|--5-----5----5----|
----------------------|-----------------------|------------------|


  E  E  E.  S E     Q    Q    Q    S E.  Q       E.  S E  E.  S E  E.  S E   
-----------------|----------------------------|--7-------------------------|
--4--6--3---3-L--|-------------------5---5----|------7-L-------------------|
-----------------|--5----5----5----L----------|-----------8-----------3-L--|
-----------------|----------------------------|--------------8-L--3--------|


  Q.     S Q    S    S Q    S Q    S S    E.  S E  E.  S E  E.  S E   
------------------|----------------2-2-|--7--------------------------|
-----------2----L-|--L-4----L-5--------|------7-L--------------------|
--5------L--------|--------------------|-----------8------------3-L--|
------------------|--------------------|---------------8-L--3--------|


  Q    Q    Q    E.  S    S S S S S S S S Q    Q       Q    E.  S E  E  S E.   
-----------------1---1-|----------------------------|----------------------|
--0----0----0----------|--4-1-----------------------|----------------------|
-----------------------|------4-2-----3-3-5----5----|--5-------------------|
-----------------------|----------4-3---------------|-------4---4-L--6--L-6|


           Rejoice: First Verse                                               
  E  E     E                    S  S E  S  S E  E      E   E   S S  E   Q     
--------|--2-------------------------2-------2-----|--12------12-----------|
--8-----|-----------------------3h-4----3h-4----4--|------11-----9-11------|
--------|------------------------------------------|-------------------10--|
--------|------------------------------------------|----------------------|


  E  E  S S E   Q       S S S S S S Q    E     S S E  S S E  E  E   
--7------------------|----5-----------------|--5-4-2---------------|
--------7------------|------x-3-4-5---------|---------5-4-2--------|
-----9----9-7--------|--3-----------3-------|----------------5--3--|
---------------10----|----------------------|----------------------|


  S S S S E  E  E  E     E   E   E  E  E   E      E  E  E  E  E  E   
------4-6-7-----7-----|-------------7--9--10--|--11--9--7-----------|
----7--------7-----7--|--9--10--11------------|------------9--7--9--|
--5-------------------|-----------------------|---------------------|
----------------------|-----------------------|---------------------|


                                              Second Verse        
   E  E  E  E   E  E     E  E   E  E  Q       H            E  E   
----------------------|--------------------|---------------------|
--10--9--7------------|--------------------|---------------7--7--|
------------9--10--9--|--7--9--10--9--7----|--0------------------|
----------------------|--------------------|---------------------|


  Q.     E.  S E     H        S S E     E  E  Q    Q       S S S S E  E  E  E   
------------------|------------------|------------------|----------7-----4-|
---------4---2-L--|------------------|------------------|------4-7----7---4|
--0---------------|--0--------L------|--0--0--2----4----|----5-------------|
------------------|-------------0-2--|------------------|------------------|


  S  S S  S  E   E  E  E     S S S S E  E  E  E     S S S S E  E  E  E   
------------12------9-----|----------7-----4-----|----------5--5--4--4--|
-------9-12-----12-----9--|------4-7----7-----4--|------2-5-------------|
----10--------------------|----5-----------------|----3-----------------|
--------------------------|----------------------|----------------------|


  E  E  S S E  S S S S    E  S  S E  E.  S E     E  E  E  E   S  S E   
--2--2-----------------|----------7------7----|-----7-----9---x-10----|
--------5-5-5--4-2-----|-----6h-7----7--------|-----------------------|
-------------------5-5-|--5-------------------|-----------------------|
-----------------------|----------------------|-----------------------|


   E  E  E  E  E  E      E   E  E  E  E  E      E   E   E   E   E   E   
--11--9--7-----------|----------7--7--9--9--|--11--11--12--12--14--14--|
------------9--7--9--|--10--10--------------|--------------------------|
---------------------|----------------------|--------------------------|
---------------------|----------------------|--------------------------|


  Q    E  Q    E     E  Q.     S E.     H        E  E     H.            
------------------|------------------|-----------------|---------------|
-------2--2-------|-----4--------2---|-----------------|---------------|
--0----L--L----L--|--L--L------------|--0--------------|--0------------|
------------------|------------------|-----------0--2--|---------------|


  Keyboard Solo                                                   
  S             E.  H           S E.  H           S E.  H         
-----------------------------|-----------------|-----------------|
-----------------------------|-----------------|-----------------|
-----------------------------|-----------------|-----------------|
--x-------------0---0--------|--x-0---0--------|--x-4---4--------|


  S S E  H           S S E  H           S S E  H           S E.  H         
------------------|------------------|------------------|-----------------|
------------------|------------------|------------------|-----------------|
------------------|--x-3----3--------|--x-3----3--------|-----------------|
--x-4----4--------|------------------|------------------|--x-0---0--------|


  S S S S E  S S S S E     S S S S E  S S S S S S    E  Q    E.  E.   
-----------------6---4--|--------4-4--4-6-6-4-2---|--2---------------|
----------2--2-4---6----|------4----------------4-|-----4----4-------|
--2-4-2-----------------|--2-4--------------------|--------------5---|
--------0---------------|-------------------------|------------------|


  Q    S S S S Q       E  Q    E.  S E     Q.     Q    E     S E.  H         
--------------------|-------------------|-----------------|----------------|
---------------5----|--L--2-------------|--3--------------|----------------|
--0----L-2-4-0------|----------4--------|---------5----3--|--3-------------|
--------------------|--------------3-L--|-----------------|----1---1-------|


                                        Third Verse                   
  S E.  H           S Q.     S S E.     H.              H.            
-----------------|-------------------|---------------|---------------|
-----------------|-------------------|--0------------|--L------------|
-----------------|-------------------|---------------|---------------|
--x-1---1--------|--x-1------L-x-1---|---------------|---------------|


  H.              H.              H.              H.              H.            
---------------|---------------|--------------|----------------|-----------|
---------------|---------------|--------------|----------------|-----------|
---------------|---------------|---------------|---------------|-----------|
---------------|---------------|---------------|---------------|-----------|


  H.              H.              H.              H.            
---------------|---------------|---------------|--0------------|
---------------|--2------------|--4------------|---------------|
---------------|---------------|---------------|---------------|
---------------|---------------|---------------|---------------|


                   Outro                                      
  Q.     Q.        Q     Q    Q    E  E     E.  S E  Q    E   
--2-------------|------------------------|-------------------|
----------------|------------------4--6--|--3---3-L----------|
---------3------|--5-----5----5----------|-----------5----5--|
----------------|------------------------|-------------------|


  E  Q    S E.  E     Q    Q    Q       E.  S S S S S S S S S  
-------------------|-----------------|------------------------|
------------5---5--|-----------------|--6---6-4---------------|
--5--5----L--------|--5----5----5----|----------6-4-2-----3-3-|
-------------------|-----------------|----------------4-3-----|


    Q     Q     Q     Q        Q     Q     Q     Q     
---------------------------|--------------10----12----|
---------------10----12----|--11----13----------------|
--/12----14----------------|--------------------------|
---------------------------|--------------------------|


   Q     Q     Q     E   S  S     S S S S  S  S  S S S S S S S S S S  
--14----16----17----19--------|--------------------------------------|
------------------------------|--------------------------------------|
------------------------11-11-|--11-9-9-9----------------------------|
------------------------------|-----------11-11-11-9-9-9-7-7-4-4-3-3-|


  W                   H        H          
-------------------|--------------------||
-------------------|--------------------||
--5----------------|--L-----------------||
-------------------|--------------------||




Duration Legend
---------------
W - whole
H - half
Q - quarter
E - 8th
S - 16th
T - 32nd
X - 64th
. - note dotted
|-n-|  - n-tuplets


Tablature Legend
----------------
L - tied note
x - dead note
g - grace note
(n) - ghost note
> - accentuded note
NH - natural harmonic
AH - artificial harmonic
TH - tapped harmonic
SH - semi harmonic
PH - pitch harmonic
h - hammer on
p - pull off
b - bend
br - bendRelease
pb - preBend
pbr - preBendRelease
brb - bendReleaseBend
\n/ - tremolo bar dip
\n - tremolo bar dive
-/n - tremolo bar Release up
/n\ - tremolo bar inverted dip
/n - tremolo bar return
-\n - tremolo bar Release down
S - shift slide
s - legato slide
/ -  slide into from below or out of upwards
\ -  slide into from above or out of downwards
~ - vibrato
W - wide vibrato
tr - trill
TP - tremolo picking
T - tapping
S - slap
P - pop
< - fade in
^ - brush up
v - brush down
comments
We did not receive enough feedback on this tab! Please rate:
print report bad tab
1 2 3 4 5
I want to post or [tab]
guest
You may want to rate the tab now too:
select rating
Please do not post tabs as comments. Select "correction" instead!