Oops, an error
Loading. Please wait.

Perpetual Change Bass Tab

by Yes
2,230 views 6 this week
no commentswrite comment
1 2 3 4 5
excellent!
x 1
Autoscroll
+/-
esc
set tempo
stop
Contributor
WARNING: You are trying to view
                                    content from Ultimate-Guitar.com
                                    in an unauthorized application,
                                    which is prohibited.

                                    Please use an official Ultimate
                                    Guitar Tabs application for iPhone,
                                    iPad or Android to access legitimate
                                    chords, guitar, bass, and drum tabs
                                    from Ultimate-Guitar.com database.

                                    Type "ultimate guitar tabs" in Apple
                                    App Store's or Android Market's
                                    search to find the application.
Yes
Perpetual Change
bass tab

  0.00   intro   5:4
|----------|----------|----------|----------|----------|----------|----------|----------|
|----------|----------|----------|----------|----------|----------|----------|----------|
|----------|----------|----------|----------|----------|----------|----------|----------|
|----------|----------|----------|----------|3---------|----3-----|0---------|----5-----|

|--------------------|--------------------|--------------------|--------------------|
|5-005-005-0---005-0-|0---0---0---0---0---|7-007-007-0---007-0-|--------------------|
|--------------------|--------------------|--------------------|0---0---0---0---0---|
|--------------------|--------------------|--------------------|--------------------|

chorus 1                                              6:4   2:4
  0.25  |------------------------|------------------------|--------|
        |0-------------------0---|------------------------|--------|
        |------------0---2-------|3-3---3-3---2-2---------|--------|
        |------------------------|------------------3-3---|3-3---3-|

  0.31  |------------------------|------------------------|--------|
        |0-------------------0---|------------------------|-^--0---|
        |------------0---2-------|3-3---3-3---2-2---------|0-2---2-|
        |------------------------|------------------3-3-3-|--------|

  0.37  |------------------------|------------------------|--------|
        |0-------------------0---|------------------------|-^--0---|
        |------------0---2-------|3-----2-----2-----0-2---|0-2---2-|
        |------------------------|--3-----3-----3---------|--------|

  0.43  |------------------------|------------------------|--------|
        |0-------------------0---|------------------------|-^--0---|
        |------------0---2-------|3-3---3-3---2-2---2-2---|0-2---2-|
        |------------------------|------------------------|--------|
                                                ^   ^
  0.49  |----------------|----------------|7---5-4-5-4--^-^--------|
        |0---------------|----------------|------------5-4-5-7---7-|
        |----------------|----------------|------------------------|
        |----------------|----------------|------------------------|

  0.55   verse 1   3:4 -3-
||---------|---------||  |---------|---------|---------|---------|---------|---------|
||---------|---------||x |---------|---------|---------|---------|5--------|---------|
||5-------5|--------0||5 |3------//|8------//|10------0|--------5|--------5|---------|
||---------|5--------||  |---------|---------|---------|3--------|---------|3--------|

  1.19  |------------------|------------------|
riff 1  |----------------0-|2---2-2---5-------|
        |----------4-------|--------------5---|
        |2---2-2-----------|------------------|

  1.22  verse 2
|---------|---------|---------|---------|---------|---------|---------|---------|
|---------|---------|---------|---------|---------|---------|---------|---------|
|--------5|---------|5--5----5|---------|5--5----5|---------|5--5----5|--------7|
|3--------|5-------5|---------|5--5----5|---------|5--5----5|---------|5--5---/-|

|---------|---------|---------|---------|---------|---------|---------|---------|
|---------|---------|---------|---------|---------|---------|5--------|---------|
|5--5----5|---------|3------57|8------//|10------0|--------5|--------5|---------|
|---------|5--5-----|---------|---------|---------|3--------|---------|3--3--3--|

  1.46  |------------------|------------------|------------9---11|----9-------------|
riff 2  |------------------|------------------|7----/9---11------|------11--7-9\----|
        |----------4-------|7---7-----9-----7-|------------------|------------------|
        |2---2-----------7-|------------------|------------------|------------------|

  1.52   refrain    5:4
|--------------------|--------------------|--------------------|14------------------|
|0-------------------|--------------------|--------------------|14------------------|
|--------------------|----------17--------|--^-----------------|12------------------|
|--------------------|--------------------|15-12---------------|--------------------|

|--------------------|--------------------|--------------------|--------------------|
|5-005-005-0---005-0-|0---0---0---0---0---|7-007-007-0---007-0-|--------------------|
|--------------------|--------------------|--------------------|0---0---0---0---0---|
|--------------------|--------------------|--------------------|--------------------|

chorus 2                                              6:4   2:4
  2.10  |------------------------|------------------------|--------|
        |0-------------------0---|------------------------|-^--0---|
        |------------0---2-------|3-3-----3-----2---2-----|0-2---2-|
        |------------------------|------3-----3-------3---|--------|

  2.16  |------------------------|------------------------|--------|
        |0-------------------0---|------------------------|-^--0---|
        |------------0---2-------|3-3---3-3---2-2---------|0-2---2-|
        |------------------------|------------------3---3-|--------|

  2.22  |------------------------|------------------------|--------|
        |0-------------------0---|------------------------|-^--0---|
        |------------0---2-------|3-----------0-2---0-2---|0-2---2-|
        |------------------------|--3---2-3---------------|--------|

  2.28  |------------------------|------------------------|--------|
        |0-------------------0---|------------------------|-^--0---|
        |------------0---2-------|3-3---3-3---2-2---2-2---|0-2---2-|
        |------------------------|------------------------|--------|
                                                ^   ^
  2.34  |----------------|----------------|7---5-4-5-4--^-^--------|
        |0---------------|----------------|------------5-4-5-7---7-|
        |----------------|----------------|------------------------|
        |----------------|----------------|------------------------|

  2.40   verse 3   3:4 -3-
|---------|---------|---------|---------|---------|------7--|---------|---------|
|---------|---------|---------|---------|--------/|7----7-7-|---------|---------|
|5-------5|------5--|5-------5|--------0|5------57|--------0|5-------5|--------0|
|---------|5----5-5-|---------|5--------|---------|---------|---------|5--------|

|---------|---------|---------|---------|---------|---------|---^-^---|---------|
|-^-------|7--5-----|---------|---------|-------02|3-------/|5-35353--|---------|
|3-5-----5|-----78-0|-------57|8------\\|3--------|---------|--------5|-----3--3|
|---------|---------|8--------|---------|---------|---------|---------|3-3------|

  3.05  |------------------|------------------|------------------|------------------|
        |5---5------5------|------------------|------------------|------------------|
        |----------------5-|----------------0-|----------------0-|------------------|
        |------------------|3---3-3----------0|3---------3------0|3---3-3---3-----3-|

  3.11  |------------------|------------------|------------9---11|---11-9-----------|
        |------------------|2---2-----4-------|7-----9---11------|--------11--9\----|
        |----------4-----2-|------4--------/7-|------------------|------------------|
        |2---2-2-----------|------------------|------------------|------------------|

|--------------------|--------------------|--------------------|--------------------|
|5-005-005-0---005-0-|0---0---0---0---0---|7-007-007-0---007-0-|--------------------|  5:4
|--------------------|--------------------|--------------------|0---0---0---0---0---|  -3-  
|--------------------|--------------------|--------------------|--------------------|

chorus 3                                              6:4   2:4
  3.25  |------------------------|------------------------|--------|
        |0-------------------0---|------------------------|-^--0---|
        |------------0---2-------|3-3---3-3---2-2-----2---|0-2---2-|
        |------------------------|------------------3-----|--------|

  3.31  |------------------------|------------------------|--------|
        |0-------------------0---|------------------------|-^--0---|
        |------------0---2-------|3-3-----3---2-2---2-----|0-2---2-|
        |------------------------|------3-------------3-3-|--------|

  3.38  |------------------------|------------------------|--------|
        |0-------------------0---|------------------------|-^--0---|
        |------------0---2-------|3-------------------0---|0-2---2-|
        |------------------------|--0---0-1---2-3---4-----|--------|

  3.44  |------------------------|------------------------|--------|
        |0-------------------0---|------------------------|-^--0---|
        |------------0---2-------|3-3---3-3---2-2---2-----|0-2---2-|
        |------------------------|--------------------3---|--------|

  3.50   pre-solo                                                 3:4   2:4
|------|------|------|------|------|------|------|----2-|------|------|----|
|------|----7-|------|------|------|------|------|-----2|------|------|----|
|00----|-00---|00----|-0----|00----|-0----|00----|-0----|00----|33----|55--|
|------|3-----|------|3-----|------|3-----|------|3-----|------|------|----|

  solo                                                6:4   2:4
  4.03  |------------------------|------------------------|--------|
        |--------------------0---|------------------------|-^--0---|
        |5-------5\--0---2-------|3-3---3-3---2-2---2-----|0-2---2-|
        |------------------------|--------------------3---|--------|

  4.10  |------------------------|------------------------|--------|--
        |0-------------------0---|------------------------|-^--0---|0---
        |------------0---2-------|3-----------------------|0-2---2-|------
        |------------------------|--0---0-1---2-3---3-4---|--------|--------

  4.22   ----------|------------------|------------------|------------------|------------------|
  6:4      -------5|------------------|------------------|------------------|------------------|
  -3-        ------|5----------------5|--------5---------|5--------5-------5|------------------|
               ----|------------------|5--------5-------5|--------5---------|5-------55-------5|

  4.36             |------------------|------------------|------------------|------------------|
                   |------4--5--4--5--|7---\-------------|------4--5--4--5--|7-----------------|
                   |5--7--------------|--------5---------|5--7--------------|--------5--------0|
                   |------------------|---------5-------5|------------------|---------5--------|

  4.50             |------------------|------------------|------------------|
                   |---0--2--3--2--0--|---0--2--3--2--0--|---0--2--3--2--3--|
                   |3-----------------|3-----------------|3-----------------|
                   |------------------|------------------|------------------|

  4.59             |------------------|------------------|------------------|
                   |4-4---------------|4-4--4------------|------------------|
                   |-----4--4-----4--4|--------4---------|-----4--.7-7--9---|
                   |---------2-2------|---------2-2--2--2|2-2---------------|

                                      |------------9---11-9-----------------|
                                      |7-----9---11--------11-9-11-9-7------|
                                      |-------------------------------9\----|
                                      |-------------------------------------|
                     8:8   7:8
  5.11  |--7-------------|--------------||7-------------|--------------|
        |0------05--0750-|7-------------||-----05--0750-|7-------------|*
        |----8-----------|--8--05--0505-||--8-----------|--8--05--0505-|*
        |----------------|--------------||--------------|--------------|...

  5.32  --||7-------------|--------------|--------------|--------------|
  5.39  0-||--------------|--------------|--------------|--------------|x
  5.45  --||--8---10----0-|5---0-5---0-5-|--------------|7-------------|3
        --||--------8-----|--------------|----------8---|----10--8-8---|

  5.51     |--------------|--------------|--------------|--------------|
           |--------------|--------------|--------------|----0---------|
           |0-3---0-2---0-|3---0-5---0-5-|----------3---|2-------3-3---|
           |--------------|--------------|--------------|--------------|

  5.57     |--------------|--------------|--------------|--------------|
           |--------------|--------------|--------------|----0---------|
           |.-3---0-2---0-|3---0-5---0-5-|----------3---|2-------3-3---|
           |--------------|--------------|--------------|--------------|

  6.03     |--------------|--------------|--------------|--------------|
           |0-------------|--------------|--------------|2---0---------|
           |--3---0-2---0-|2---0-5---0-5-|------0---3---|--------3-3---|
           |--------------|--------------|--------------|--------------|

  6.09     |--------------|--------------|--------------|--------------|
           |2-----0-------|--2---0-----0-|--------------|2---0---------|
           |--3-----2---0-|2---------0---|----------2-3-|--------3-3---|
           |----------3---|--------------|--------3-----|--------------|

  6.14     |--------------|--------------|--------------|--------------|
           |2-------------|------0-----0-|--------------|2---0---0-0---|
           |--3---3-2-0-3-|--3-3-----0---|----------2-3-|-------0-0----|
           |--------------|--------------|--------3-----|--------------|

  6.20     |--------------|--------------|--------------|--------------|
           |2---------0-2-|--2---0---0-0-|--0-0---0-0-0-|--------------|
           |--3--02-3-----|3----0---0-0--|-0-0---0-0-0--|--------------|
           |--------------|--------------|--------------|--------------|

chorus 4                                              6:4   2:4
  6.27  |------------------------|------------------------|--------|
        |0-------------------0---|------------------------|----0---|
        |------------0---2-------|3-3---3-3---2-2---2-2---|2-2---2-|
        |------------------------|------------------------|--------|

  6.33  |------------------------|------------------------|--------|
        |0-------------------0---|------------------------|-^--0---|
        |------------0---2-------|3-3-----3---2-2---2-----|0-2---2-|
        |------------------------|------3-------------3---|--------|

  6.39  |------------------------|------------------------|--------|
        |0-------------------0---|------------------------|-^--0---|
        |------------0---2-------|3-------------------2---|0-2---2-|
        |------------------------|--0---0-1---2-3---4-----|--------|

  6.45  |------------------------|------------------------|--------|
        |0-------------------0---|------------------------|-^--0---|
        |------------0---2-------|3-3---3-3---2-2---2-2---|0-2---2-|
        |------------------------|------------------------|--------|

  6.51  |------------------------|
        |0-----------------------|
        |----3-2-3-2-------0---0-|
        |------------3-2-3-------|

  6.54   verse 4  3:4 -3-
|------------------|------------------|------------------|------------------|
|0-----------------|------------------|------------------|------------------|
|----------------5-|----------------0-|5---------------5-|----------------0-|
|------------------|5-----------------|------------------|5-----------------|

|---------------/7-|---------/11----9-|------------------|------------------|
|------------------|7-----------------|12--------------9-|------------------|
|5-----------------|------------------|------------------|12-------12-12--9-|
|------------------|------------------|------------------|------------------|

|------------------|------------------|
|------------------|------------------|
|----------------5-|----------------0-|
|10----------------|5-----------------|

  7.10  |------------------|------------------|------------------|
  6:4   |---0--2--3--2--0--|-----02--3--2--0--|---0--------------|
  -3-   |3-----------------|3-----------------|3-----------------|
        |------------------|------------------|------0--1--0--1--|

  7.20  |------------------|------------------|
        |------------------|------------------|
        |------------------|------------------|
        |3-3--30-02-2--.0-0|3-3--30-01-1-1-1-0|
                                                      4:4 -3-
  7.26  |------------------------------------|   |------------------------|
        |------------------------------------|x  |------------------------|x
        |-----------------^^----------------^|6  |------------------------|3
        |5---5-----5-5---035---5-----5-5---03|   |5---5-------------------|

  7.49  |------------------------------------|   |------------------------|
        |------------------------------------|x  |------------------------|x
        |-----------------^^----------------^|4  |------------------------|3
        |5---5-----5-5---035---5-----5-5---03|   |5---5-------------------|

  8.06  |------------------|------------------|------------------|------------------|
        |------------------|------------------|------------------|------------------|
        |-----------------^|^----------------^|-----------------^|^-----------------|
        |5---5-----5-5---03|5---5-----5-5---03|5---5-----5-5---03|5---5-----5-5---//|

  8.12  |------------------|   |------------------|------------------|
        |----------------^-|x  |------------------|------------------|
        |---------10---1012|10 |12-.-.-.-.-.-.-.--|12-.-.-.-.-.-.-.--|
        |10--10-----10-----|   |------------------|------------------|

  8.30  |------------------||------------------|
        |----------------^-||--------^-----^---|*
        |--------------1012||------1012..1012..|*...
        |10--10-----10-----||10--10------------|
   


standard tuning (EADG)

| /  slide up
| \  slide down

| .   incidental note (usually open string)
| ^   pre-struck note (hammer-on, pull-off)
| =   rest

| X   10
| E   11
| T   12
| H   13
| F   14


display in fixed-width font
one space ("-") = 1/16 note

tabbed by
spaceyhippie
dudeman.net/jam

comments
We did not receive enough feedback on this tab! Please rate:
1 2 3 4 5
I want to post or [tab]
guest
You may want to rate the tab now too:
select rating
Please do not post tabs as comments. Select "correction" instead!