Oops, an error
Loading. Please wait.

Siberian Khatru Bass Tab

by Yes
ver1
ver1

Whole song

Interactive

More versions @911Tabs.com
6,958 views 9 this week
no commentswrite comment
1 2 3 4 5
excellent!
x 2
Autoscroll
+/-
esc
set tempo
stop
NEW! There's an official Ultimate Guitar app which is ideal
for learning songs when you're away from computer. Get the app
WARNING: You are trying to view
                                    content from Ultimate-Guitar.com
                                    in an unauthorized application,
                                    which is prohibited.

                                    Please use an official Ultimate
                                    Guitar Tabs application for iPhone,
                                    iPad or Android to access legitimate
                                    chords, guitar, bass, and drum tabs
                                    from Ultimate-Guitar.com database.

                                    Type "ultimate guitar tabs" in Apple
                                    App Store's or Android Market's
                                    search to find the application.
                                Siberian Khatru
                                      Yes
                                                      Transcribed by Justin Benz


    Guitar            0:04                                                      
G---|-----------------|-------------------|--------------------|----------------
D---|-----------------|-----------9-------|--------------------|----------------
A---|-----------------|--7-----------7\---|--0--------2--------|-----------2----
E---|-----------------|-------------------|--------------------|--3-------------
                                                                                

                                                                                
G----------------------|-----------------------------|--------------------4-----
D----------------7--9--|--0-----2-----0--------------|--------------------------
A---/---7--8--9--------|--------------------2-----0--|--2--2--2--2--2-----------
E----------------------|-----------------------------|--------------------------
                                                                                

                                                                                
G------|--2--------------------------||-----------------------------------------
D------|--------4--------------------||*----------------------------------7-----
A------|--------------4-----2-----0--||*--------------------2/---7--8--9--------
E------|-----------------------------||---3--3--3--3--3-------------------------
                                                                                

                                                                                
G------|-----------------------------|--------------------4-----|--2------------
D---9--|--0-----2-----0--------------|--------------------------|--------4------
A------|--------------------2-----0--|--2--2--2--2--2-----------|---------------
E------|-----------------------------|--------------------------|---------------
                                                                                

                       4x                                                       
G----------------------||--------------------------------|----------------------
D---------------------*||--------------------------------|----------------------
A------4-----2-----0--*||--------------------------------|----------------------
E----------------------||--3-----3-----3-----0--1-----3--|--3-----3-----3-------
                                                                                

                                                                                
G---------------|--------------------------------|------------------------12----
D---------------|--------------------------------|----------------11--12--------
A---------------|--------------------------------|------------------------------
E---0--1-----3--|--3-----3-----3-----0--1-----3--|--3-----3-----3/--------------
                                                                                

                                                                1:05            
G------|--------------------------|------------------------12\--|---------------
D------|--------------------------|----------------11--12-------|---------------
A---10\|--------------------------|-------------------------/10\|---------------
E------|--3-----3-----3--0--1--2--|--3-----3-----3/-------------|--3-----3------
                                                                                

                                                                                
G------------------|--------------------------|--------------------------|------
D------------------|--------------------------|--------------------------|------
A------------------|--------------------------|--------------------------|------
E------3--0--1--2--|--3-----3-----3--0--1--2--|--3-----3-----3--0--1--2--|------
                                                                                

                                                                                
G------------------------|--------------------------|---------------------------
D------------------------|--2-----0-----------------|---------------------------
A------------------------|--------------3-----1-----|--0------------------------
E---3-----3-----1--------|--------------------------|--------3-----1------------
                                                                                

                                                                                
G---|--------------------------|-----------------------------|------------------
D---|--------------------------|-----------------------------|------------------
A---|--------------------------|-----------------------------|------------------
E---|--3-----3-----3--0--1--2--|--3-----3-----3-----0--1--3--|--3-----3---------
                                                                                

                                                                                
G------------------|-----------------------|--------------------------|---------
D------------------|-----------------------|--2-----0-----------------|---------
A------------------|-----------------------|--------------3-----1-----|--0------
E---3-----0--1--2--|--3-----3-----1--------|--------------------------|---------
                                                                                

                                                                                
G---------------------|-----------------|-----------------|---------------------
D---------------------|-----------------|-----------------|---------------------
A---------------------|-----------------|-----------------|---------------------
E------3-----1--------|--0--3-----------|--0--3-----------|--0--3---------------
                                                                                

    1:35                                                                        
G---|--------------------------|-------------------------|----------------------
D---|--7-----5--7-----5--------|--------5--7-----5-------|--------2--4-----2----
A---|-----7-----------------7--|-----7-----------------7\|-----4----------------
E---|--------------------------|--5----------------------|--2-------------------
                                                                                

                                                                                
G---------|----------------------|-----------------|-------------------12--|----
D---------|--------2--4----------|-----------------|------------12---------|----
A------4--|-----4-----------2h4--|-----------------|-----10----------------|----
E---------|--2-------------------|--3--------------|-----------------------|----
                                                                                

                                                                                
G------------------------|----------------16------------|-----------------------
D---12------------12-----|---------16------------16-----|---------16------------
A----------10------------|--14--------------------------|--14-------------------
E------------------------|------------------------------|-----------------------
                                                                                

                                                                                
G---|----------------12------------|-------------------|----------------16------
D---|---------12------------12-----|---------12--------|---------16-------------
A---|--10--------------------------|--10---------------|--14--------------------
E---|------------------------------|-------------------|------------------------
                                                                                

                                                                                
G-------------|-------------------|--------------------------|------------------
D------16-----|---------16--------|--------------------------|------------------
A-------------|--14---------------|--------------------------|------------------
E-------------|-------------------|--3-----3-----3--0--1--2--|--3-----x--3------
                                                                                

                                                                                
G---------------------12-----|-----------------------------|--------------------
D---------10--11--12---------|-----------------------------|--------------------
A-------------------------10\|-----------------------------|--------------------
E------3---------------------|--3-----3-----3-----0--1--2--|--3-----3-----3-----
                                                                                

             2:09                                                               
G------------|--------------------------|---------------------------12----------
D------------|--------------------------|-------------------11--12--------------
A------------|--------------------------|-------------------------------10------
E---1-----2--|--3-----3-----3--0--1--2--|--3-----3-----3/-----------------------
                                                                                

                                                                                
G----|--------------------------|-----------------------|-----------------------
D----|--------------------------|-----------------------|--2-----0--------------
A---\|--------------------------|-----------------------|--------------3--------
E----|--3-----3-----3--0--1--2--|--3-----3-----1--------|-----------------------
                                                                                

                                                                                
G---------|-----------------------|------------------------12-----|-------------
D---------|-----------------------|----------------11--12---------|-------------
A---1-----|--0--------------------|----------------------------10\|-------------
E---------|--------3-----1--------|--3-----3-----3/---------------|--3-----3----
                                                                                

                                                                                
G------------------|-----------------------------|-----------------------|------
D------------------|-----------------------------|-----------------------|------
A------------------|-----------------------------|-----------------------|------
E------3--0--1--2--|--3-----3-----3-----0--1--2--|--3-----3-----1--------|------
                                                                                

                                                                                
G---------------------------|-----------------------|-----------------|---------
D---2-----0-----------------|-----------------------|-----------------|---------
A---------------3-----1-----|--0--------------------|-----------------|---------
E---------------------------|--------3-----1--------|--0--3-----------|--0------
                                                                                

                                  2:39                                          
G---------------|-----------------|--------------------------|------------------
D---------------|-----------------|--7-----5--7-----5--5-----|------------------
A---------------|-----------------|-----7-----------------7--|--7--------7------
E---3-----------|--0--3-----------|--------------------------|-----5------------
                                                                                

                                                                                
G------------|--------------------------|----------------------|----------------
D------5--7--|--4-----2--4-----2--------|--------------2h4--4--|----------------
A------------|-----4-----------------4--|--------4-------------|----------------
E------------|--------------------------|--2-------------------|--3-------------
                                                                                

                                                                                
G------|---------------------------|-------------------------------|------------
D------|--9-----7--9-----7h9p7-----|--------7--9-----9--9p7--------|------------
A------|-----9------------------5--|-----9-------------------9--5--|-----6------
E------|---------------------------|--7----------------------------|--4---------
                                                                                

                                                                                
G----------------------|-----------------------------|--------------------------
D---4--6-----4h6p4-----|--------4--6-----6p4---------|--------7--9-----7h9------
A-------------------2--|-----6----------------6p4--2/|-----9--------------------
E----------------------|--4--------------------------|--7-----------------------
                                                                                

                                                                                
G-------------|------------------------------|--------------(9)--(11)--(12)-----
D---p7--------|--------7--9-----9p7----------|----------------------------------
A-------9--5--|-----9----------------9p7--5--|----------------------------------
E-------------|--7---------------------------|--3-------------------------------
                                                                                

                              3:06 Sitar Solo                                   
G------(12)--(12)--(11)--(9)--|--------------------|-----------------------|----
D-----------------------------|--------4-----4--4--|-----------------------|----
A-----------------------------|--------------------|--5-----4-----2-----2--|----
E-----------------------------|--2-----------------|-----------------------|----
                                                                                

                                                                                
G---------------------------------------|---------------------------------------
D---------------------------------------|--------9------9-----------------------
A---2/4--4-----4/5--5-----5/7--7-----7--|--9/11-----11-----11p9p7---------------
E---------------------------------------|---------------------------------------
                                                                                

    Harpsichord Solo                                                            
G---|--------------------11----------|--------------13--11------------|---------
D---|-------------9--11------11------|--12------11----------9-----11--|---------
A---|--9--11--12-----------------12--|------12------------------------|--9------
E---|--------------------------------|--------------------------------|---------
                                                                                

                                                                                
G------------------11------|--9-----11-----12-----12--11--9--|------------------
D-----------9--11------11--|---------------------------------|-------------9----
A---11--12-----------------|---------------------------------|--9--11--12-------
E--------------------------|---------------------------------|------------------
                                                                                

                                                                                
G-------11----------|--------------13--11--------|------------------------------
D---11------11------|--12------11----------9-----|--11--11--------12--12--------
A---------------12--|------12--------------------|------------------------------
E-------------------|----------------------------|----------9-------------10----
                                                                                

                                 3:30 Pedal Steel Solo                          
G-------------|------------------|-----------------------------------------|----
D------14-----|--11--------------|--4--4--------4--4--------4--4-----4-----|----
A-------------|------------------|-----------------------------------------|----
E-------------|------------------|--------2-----------2-----------------2--|----
                                                                                

                                                                                
G------------------------|-----------------------------------|------------------
D------------------------|--------------4--4-----------------|--2-----4---------
A---5-----4-----2--------|-----------------------------------|------------------
E------------------------|--2--2--2-----------2-----x--2--2--|------------------
                                                                                

                                                                                
G---------------------|-------------------------------------------|-------------
D---5-----5--5--4--2--|--0h2-----4-----4--4--------4--4--4--------|-------------
A---------------------|-------------------------------------------|--5-----4----
E---------------------|-------2--------------2-----------------2--|-------------
                                                                                

                                                                                
G------------------|--------------------------------------|---------------------
D------------------|--------------------------------------|--------9------9-----
A------2--------2--|--2/4--4-----4/5--5-----5/7--7-----7--|--9/11-----11--------
E------------------|--------------------------------------|---------------------
                                                                                

            Guitar Solo                   2x                                    
G-----------||----------------------------||-------------------------|----------
D-----------||*--------------------------*||-------------------------|----------
A---11p9p7--||*--9--9--9--9--9--9--9--9--*||--9--9--9-----9--9--7----|----------
E-----------||----------------------------||-----------------------9\|--0-------
                                                                                

                                                                                
G------------------------||----------------------------||-----------------------
D------------------------||*--------------------------*||-----------------------
A------------------------||*--------------------------*||--2/4--4-----4/5--5----
E---2-----3-----3--2--0--||---2--2--2--2--2--2--2--2---||-----------------------
                                                                                

                                                                                
G--------------------|--------------------------|-----------------|-------------
D--------------------|--------9------9----------|-----------------|-------------
A------5/7--7-----7--|--9/11-----11-----11p9p7--|--9--------------|--2----------
E--------------------|--------------------------|-----------------|-------------
                                                                                

                                              4:14                              
G---------|-----------------|-----------------|---------------------------------
D---------|--4--------------|-----------------|---------------------------------
A---4-----|-----------------|--2--------4-----|--5--------(5)/------------------
E---------|-----------------|-----------------|---------------------------------
                                                                                

    Play with Harmonics                                     7x                  
G-------------||---(7)-----------------(7)------------------||--12--------------
D--------(7)--||*-------(7)-------(7)-------(7)-------(7)--*||------12----------
A---(7)-------||*------------(7)-----------------(7)-------*||----------10------
E-------------||--------------------------------------------||------------------
                                                                                

                                                                                
G-------12--------------|--12--------------12------|----------16----------------
D---12------12------12--|------12------12------12--|------16------16------16----
A---------------10------|----------10--------------|--14--------------14--------
E-----------------------|--------------------------|----------------------------
                                                                                

                                                                                
G---16------|----------16--------------16------|--------------12----------------
D-------16--|------16------16------16------16--|--12------12------12------12----
A-----------|--14--------------14--------------|------10--------------10--------
E-----------|----------------------------------|--------------------------------
                                                                                

                                                                                
G---12--|--------------12------|----------16--------------16------|-------------
D-------|--12------12----------|------16------16------16------16--|------16-----
A-------|------10----------10--|--14--------------14--------------|--14---------
E-------|----------------------|----------------------------------|-------------
                                                                                

                                                                                
G---16-------------|-----------------------------|------------------------------
D-------16---------|-----------------------------|-----------5-----3------------
A-----------14-----|-----------------------------|--------------------5--4------
E------------------|--3-----3-----3-----0--1--2--|--3-----3---------------------
                                                                                

                                                                                
G------------|-----------------------------|------------------------------------
D---------5--|-----------------------------|-----------5-----3------------------
A---3--------|-----------------------------|--------------------5--4--3---------
E------6-----|--3-----3-----3-----0--1--2--|--3-----3--------------------6------
                                                                                

       4:56                                                                     
G------|--------------------------|-----------------------------------|---------
D---5--|--------------------------|-----------5-----3--------------5--|---------
A------|--------------------------|--------------------5--4--3--------|---------
E------|--3-----3-----3--0--1--2--|--3-----3--------------------6-----|--3------
                                                                                

                                                                                
G------------------------|-----------------------|------------------------------
D------------------------|-----------------------|--2-----0---------------------
A------------------------|-----------------------|--------------3-----1---------
E------3-----3--0--1--2--|--3-----3-----1--------|------------------------------
                                                                                

                                                                                
G---|-----------------------|--------------------------|------------------------
D---|-----------------------|--------------------------|-----------5-----3------
A---|--0--------------------|--------------------------|------------------------
E---|--------3-----1--------|--3-----3-----3--0--1--2--|--3-----3---------------
                                                                                

                                                                                
G------------------|--------------------------|-----------------------|---------
D---------------5--|--------------------------|-----------------------|--2------
A---5--4--3--------|--------------------------|-----------------------|---------
E------------6-----|--3-----3-----3--0--1--2--|--3-----3-----1--------|---------
                                                                                

                                                    5:22                        
G------------------------|--------------------------|---------------------------
D------0-----------------|--------------------------|--5------------------------
A------------3-----1-----|--0-----------------------|---------------------------
E------------------------|--------3-----1--------3--|---------------------------
                                                                                

    Use Upstrokes and strum chords lazily  2x                                   
G---||---7--------------|--4---------------||--||------------7------------------
D---||*--9--------------|--6--------------*||--||*--------9-----9---------------
A---||*--9--------------|--6--------------*||--||*-----9-----------9-----9------
E---||---7--------------|--4---------------||--||---7-----------------7---------
                                                                                

                                                        2x                      
G------7--------|-----------4-----------------4---------||-----------7----------
D---9-----9-----|--------6-----6-----------6-----6-----*||--------9-----9-------
A------------9--|-----6-----------6-----6-----------6--*||-----9-----------9----
E---------------|--4-----------------4------------------||--7-------------------
                                                                                

                      6:18                                                      
G------------7--------|--------------------------------|------------------------
D---------9-----9-----|--------------------------------|------------------------
A------9-----------9--|--------------------2--------2--|--5-----7-----5---------
E---7-----------------|--3--3--3--3--3--------0--3-----|------------------------
                                                                                

                                                                                
G------------|-------------------------|-----2--------------------------|-------
D------------|-------------------------|-----------4--4-----------------|-------
A------------|-------------------2-----|-----------------4-----2-----0--|-------
E---7-----5--|--7--7--x--x--7\---------|--------------------------------|--3----
                                                                                

                                                                                
G--------------------------------------|-----------------------------|----------
D--------------------------------7--9--|--0-----2-----0--------------|----------
A------------------2/---7--8--9--------|--------------------2-----0--|--2--2----
E---3--3--3--3-------------------------|-----------------------------|----------
                                                                                

                                                                                
G---------------4-----|--2--------------------------|---------------------------
D---------------------|--------4--------------------|---------------------------
A---2--2--2-----------|--------------4-----2-----0--|--------------------2------
E---------------------|-----------------------------|--3--3--3--3--3------------
                                                                                

                                                                                
G----------------------|--7-----9-----7--------------------|--------------------
D----------------7--9--|--------------------9-----9--7--7--|--7--9--9--7--9-----
A---/---7--8--9--------|-----------------------------------|--------------------
E----------------------|-----------------------------------|--------------------
                                                                                

                                                                                
G-------------|--2--------------------------|-----------------------------------
D---\---------|--------4--------------------|-----------------------------------
A-------2-----|--------------4-----2-----0--|--------------------2/---7--8------
E-------------|-----------------------------|--3--3--3--3--3--------------------
                                                                                

                                                                                
G------------|-----------------------------|--------------------4-----|--2------
D---------9--|--0-----2-----0--------------|--------------------------|---------
A---9--------|--------------------2-----0--|--2--2--2--2--2-----------|---------
E------------|-----------------------------|--------------------------|---------
                                                                                

                                                                                
G------------------------------|--------------------------------|--7-----9------
D------x--4--------------------|-----------------------------9--|---------------
A---------------4-----2-----0--|--------------------2/7--10-----|---------------
E------------------------------|--3--3--3--3--3-----------------|---------------
                                                                                

                                                                                
G------7--------------|-------------------------|--2----------------------------
D------------9-----7--|--9--9--9--7--9\---------|--------4----------------------
A---------------------|-------------------2-----|--------------4-----2-----0----
E---------------------|-------------------------|-------------------------------
                                                                                

                                                                                
G---|--------------------------------|-----------------------------|------------
D---|--------------------------------|-----------------------------|------------
A---|--------------------2--------2--|--5-----7-----5-----2-----0--|--2--2------
E---|--3--3--3--3--3--------0--3-----|-----------------------------|------------
                                                                                

                                                    7:00                        
G---------------4-----|--2--------------------------||--------------------------
D---------------------|--------4--------------------||*-------------------------
A---2--2--2-----------|--------------4-----2-----0--||*--0--0--0--0--0--0--0----
E---------------------|-----------------------------||--------------------------
                                                                                

                                   8x  7:33                                     
G------|---------------------------||--||---------------------------------------
D------|--------------------------*||--||*--------------------------------------
A---0--|--0--0--0--0--0--0--0--0--*||--||*--------------2--2--2--2--------------
E------|---------------------------||--||---3--3--3--3--------------0--0--0-----
                                                                                

                                                                                
G------------------|--------------------------------------------------|---------
D------------------|--------------------------------------------------|--9------
A------------------|--2--2--2--2--5--5--5--5--7--7--7--7--5--5--5--5--|---------
E---0--3--3--3--3--|--------------------------------------------------|---------
                                                                                

                                                   Repeat and Fade w/ Ad-lib                     
G--------------------|-----2--2--2-------------------------||-------------------
D---9--9--7\---------|--------------4---------------------*||-------------------
A--------------2-----|--------------------4-----2-----0---*||-------------------
E--------------------|-------------------------------------||-------------------
                                                                                




================================================================================
==                Created with a demo version of BUCKET O' TAB                ==
==                  tablature creation software for Windows                   ==
==                       http://www.his.com/~gse/bucket                       ==
================================================================================

comments
We did not receive enough feedback on this tab! Please rate:
print report bad tab
1 2 3 4 5
I want to post or [tab]
guest
You may want to rate the tab now too:
select rating
Please do not post tabs as comments. Select "correction" instead!