Oops, an error
Loading. Please wait.

Siberian Khatru Bass Tab

by Yes
ver2
ver2

Whole song

More versions @911Tabs.com
840 views 3 this week
no commentswrite comment
1 2 3 4 5
accurate
x 1
Autoscroll
+/-
esc
set tempo
stop
WARNING: You are trying to view
                                    content from Ultimate-Guitar.com
                                    in an unauthorized application,
                                    which is prohibited.

                                    Please use an official Ultimate
                                    Guitar Tabs application for iPhone,
                                    iPad or Android to access legitimate
                                    chords, guitar, bass, and drum tabs
                                    from Ultimate-Guitar.com database.

                                    Type "ultimate guitar tabs" in Apple
                                    App Store's or Android Market's
                                    search to find the application.
G||------------------|------------------|------------------|
D||------------------|------------------|------------------|
A||------------------|------------------|------------------|
E||------------------|------------------|------------------|


                                                          
-----------4---------|--------------------|--------------|
--2-------------2----|--------------------|--------------|
---------------------|--0--------2--------|--------------|
---------------------|--------------------|--------------|


                                                                          
------------------4-----|----------------------|------------4----2-------|
------------2--4-----0--|----2----0------------|----------------------4--|
---------2--------------|--------------2----0--|--2-2--2-2---------------|
--3---------------------|----------------------|-------------------------|


                                                                  
-----------------|------------------4-----|----------------------|
-----------------|------------2--4-----0--|----2----0------------|
----4----2----0--|---------2--------------|--------------2----0--|
-----------------|--3---------------------|----------------------|


                                                                        
------------4----2-------|-----------------|---------------------4-----|
----------------------4--|-----------------|---------------2--4-----0--|
--2-2--2-2---------------|----4----2----0--|------------2--------------|
-------------------------|-----------------|--3-3--3-3-----------------|


                                                                   
----------------------|------------4----2-------|-----------------|
----2----0------------|----------------------4--|-----------------|
--------------2----0--|--2-2--2-2---------------|----4----2----0--|
----------------------|-------------------------|-----------------|


                                                                              
---------------------4-----|----------------------|-------------4----2-------|
---------------2--4-----0--|----2----0------------|-----------------------4--|
------------2--------------|--------------2----0--|--2-2-2-2-2---------------|
--3-3--3-3-----------------|----------------------|--------------------------|


                                                                     
-----------------|---------------------4-----|----------------------|
-----------------|---------------2--4-----0--|----2----0------------|
----4----2----0--|------------2--------------|--------------2----0--|
-----------------|--3-3--3-3-----------------|----------------------|


                                                                        
------------4----2-------|-----------------|---------------------4-----|
----------------------4--|-----------------|---------------2--4-----0--|
--2-2--2-2---------------|----4----2----0--|------------2--------------|
-------------------------|-----------------|--3-3--3-3-----------------|


                                                                   
----------------------|--------------4--2-------|-----------------|
----2----0------------|----------------------4--|-----------------|
--------------2----0--|--2-2--2-2---------------|----4----2----0--|
----------------------|-------------------------|-----------------|


                                                                           
------------------------|------------------------|------------------------|
------------------------|------------------------|------------------------|
------------------------|------------------------|------------------------|
--3----3----3--0--1--2--|--3----3----3--0--1--2--|--3----3----3--0--1--2--|


                                                                               
--------------------0-----|------------------------|--------------------0-----|
--------------0h2h3-------|------------------------|--------------0h2h3-------|
--------------------------|------------------------|--------------------------|
--3----3----3----------3--|--3----3----3--0--1--2--|--3----3----3----------3--|


                                                                           
------------------------|------------------------|------------------------|
------------------------|------------------------|------------------------|
------------------------|------------------------|------------------------|
--3----3----3--0--1--2--|--3----3----3--0--1--2--|--3----3----3--0--1--2--|


                                                                   
----------------------|----------------------|--------------------|
-------------------2--|----0-----------------|--------------------|
----------------------|---------3----1----0--|--------------------|
--3----3----1---------|----------------------|----3----1----------|


                                                                           
------------------------|------------------------|------------------------|
------------------------|------------------------|------------------------|
------------------------|------------------------|------------------------|
--3----3----3--0--1--2--|--3----3----3---1-1--2--|--3----3----3--0--1--2--|


                                                                    
----------------------|----------------------|---------------------|
-------------------2--|----0-----------------|---------------------|
----------------------|---------3----1----0--|---------------------|
--3----3----1---------|----------------------|----3----1---------0-|


                                                                 
---------------------|---------------------|--------------------|
---------------------|---------------------|--------------------|
---------------------|---------------------|--------------------|
--3--3-------------3-|--3--3-------------3-|--3--3--------------|


                                                                           
--2-----0--2----0-------|--2-----0--2----0-------|------------------------|
-----2---------------2--|-----2---------------2--|--------2--4----2-------|
------------------------|------------------------|-----4---------------4--|
------------------------|------------------------|--2---------------------|


                                                       
-----------------------|-------------------|----------|
--------2--4------0----|-------------------|----------|
-----4-----------------|-------------------|----------|
--2--------------------|--3----------------|----------|


                                                                         
----------------12--------|------------------|----------11----16--------|
----------12----------12--|----------12------|----------------------16--|
----10--------------------|----10------------|----14--------------------|
--------------------------|------------------|--------------------------|


                                                                 
------------------|--------------------------|------------------|
----------16------|----------------17--------|------------------|
----14------------|----------17----------17--|----------17------|
------------------|----15--------------------|----15------------|


                                                                         
----------------16--------|--------------------|------------------------|
----------16----------16--|----------16--------|------------------------|
----14--------------------|----14--------------|------------------------|
--------------------------|--------------------|--3----3----3--0--1--2--|


                                                                                
----------------------0-0-----|------------------------|-----------------------|
--------------0h2h3h4---------|------------------------|-----------------------|
------------------------------|------------------------|-----------------------|
--3----3----3--------------3--|--3----3----3--0--1--2--|--3----3----3--0----1--|


                                                                             
------------------------|--------------------0-----|------------------------|
------------------------|--------------0h2h3-------|------------------------|
------------------------|--------------------------|------------------------|
--3----3----3--0--1--2--|--3----3----3----------3--|--3----3----3--0--1--2--|


                                                                   
----------------------|----------------------|--------------------|
-------------------2--|----0-----------------|--------------------|
----------------------|---------3----1----0--|--------------------|
--3----3----1---------|----------------------|----3----1----------|


                                                                             
--------------------0-----|------------------------|------------------------|
--------------0h2h3-------|------------------------|------------------------|
--------------------------|------------------------|------------------------|
--3----3----3----------3--|--3----3----3--0--1--2--|--3----3----3--0--1--2--|


                                                                    
----------------------|----------------------|---------------------|
-------------------2--|----0-----------------|---------------------|
----------------------|---------3----1----0--|---------------------|
--3----3----1---------|----------------------|----3----1---------0-|


                                                                 
---------------------|---------------------|--------------------|
---------------------|---------------------|--------------------|
---------------------|---------------------|--------------------|
--3--3-------------3-|--3--3-------------3-|--3--3--------------|


                                                                          
--2-----0--2----0-------|-----2---------0----2--|------------------------|
-----2---------------2--|----------2------------|--------2--4----2-------|
------------------------|--0--------------------|-----4---------------4--|
------------------------|-----------------------|--2---------------------|


                                                                                
----------------------|-------------------|----------|--4-----2--4----4--------|
---------4----4----4--|-------------------|----------|-----4-------------4p0---|
----------------------|-------------------|----------|-------------------------|
--2-------------------|--3----------------|----------|-------------------------|


                                                                            
--4-----2--4----4--------|--1------1-------------|--1--------1----1--------|
-----4-------------4p0---|--------------4--0-----|-----1--4----------1-----|
-------------------------|-------------------2---|---------------------2---|
-------------------------|-----------------------|-------------------------|


                                                                         
--4-----2--4---4--4-------|--4-----2--4-----4-------|-------------------|
-----4--------------4-0---|-----4-------------4-0---|-------------------|
--------------------------|-------------------------|-------------------|
--------------------------|-------------------------|--3----------------|


                                                                
------------------|----------------------|---------------------|
------------------|-------------------0--|---------------------|
------------------|----------------------|------4----2------2--|
------------------|--2------2----2-------|---------------------|


                                                          
-----------------------|---------------------------------|
------------0--0--0----|---------------------------------|
--4------4-------------|------------14--11--14--11p9-----|
-----------------------|--14--14---------------------12--|


                                                                 
--------------------11----------|--------------13--11-----------|
-------------9--11------11------|--12------11----------9----11--|
--9--11--12-----------------12--|------12-----------------------|
--------------------------------|-------------------------------|


                                                               
---------------------11------9--|----11----12---12-12--11--9--|
--------------9--11------11-----|-----------------------------|
------11--12--------------------|-----------------------------|
--14----------------------------|-----------------------------|


                                                               
--------------------11----------|--------------13--11---------|
-------------9--11------11------|--12------11----------9------|
--9--11--12-----------------12--|------12---------------------|
--------------------------------|-----------------------------|


                                                    
-------------------------9----|--------------------|
--11-11------12-12------------|--11----------------|
------------------------------|--------------------|
--------9----------10---------|--------------------|


                                                                              
----------------------------|---------------------|--------------------------|
--4-4------4-4------4--4----|--0------------------|--4-4------4-4---------2--|
----------------------------|-------4----2--------|--------------------------|
------2--------2--2------2--|---------------------|------2--------2---2------|


                                                                            
----------0--0-0--------|---------------------------|----------------------|
-----4------------4--2--|--4--------4-4-----4--4-4--|--0-------------------|
------------------------|---------------------------|-------4----2------2--|
------------------------|-----2--2------2-----------|----------------------|


                                                                              
-----------------------|----------4--1--4--1------|--------------------------|
----------0----0--0----|--4--4---------------4-2--|--4--4--4--4--4--4--4--4--|
--4----4---------------|--------------------------|--------------------------|
-----------------------|--------------------------|--------------------------|


                                                                              
--------------------------|-------------------------|------------------------|
--4--4--4--4--4--4--4--4--|--4--4--4--4----2--------|------------------------|
--------------------------|-------------------4-----|------------------------|
--------------------------|----------------------0--|----2----3---3-3--2--0--|


                                                                              
--------------------------|--------------------------|-----------------------|
--------------------------|--------------------------|----------0----0--0----|
--------------------------|-----------------------2--|--4----4---------------|
--2--2--2--2--2--2--2--2--|--2--2--2--2--2--2--2-----|-----------------------|


                                                                    
----------4--1--4--1------|-------------------|--------------------|
--4--4---------------4-2--|-------------------|--------------------|
--------------------------|-------------------|--2--------4--------|
--------------------------|--2----------------|--------------------|


                                                                         
-------------------|--------------------|----------|--------------------|
--4----------------|--------------------|----------|--0--------0--------|
-------------------|--2--------4--------|----------|--------------------|
-------------------|--------------------|----------|--------------------|


                                                                      
--19--------------19--------------|--19--------------19--------------|
--------------16--------------16--|--------------16--------------16--|
------17--------------17----------|------17--------------17----------|
----------17--------------17------|----------17--------------17------|


                                                                    
--19--------------19--------------|--19--------------19------------|
--------------16--------------16--|--------------16----------------|
------17--------------17----------|------17--------------17--------|
----------17--------------17------|----------17--------------17----|


                                                                      
--19--------------19--------------|--19--------------19--------------|
--------------16--------------16--|--------------16--------------16--|
------17--------------17----------|------17--------------17----------|
----------17--------------17------|----------17--------------17------|


                                                                      
--19--------------19--------------|--19--------------19--------------|
--------------16--------------16--|--------------16--------------16--|
------17--------------17----------|------17--------------17----------|
----------17--------------17------|----------17--------------17------|


                                                              
----------------------------------|--------------------------|
--17--------------17--------------|--17--------------17------|
------17------17------17------17--|------17------17------17--|
----------15--------------15------|----------15--------------|


                                                              
----------16--------------16------|----------16--------------|
------16------16------16------16--|------16------16------16--|
--14--------------14--------------|--14--------------14------|
----------------------------------|--------------------------|


                                                              
--16------------------------------|--------------------------|
------16--------------17----------|------17--------------17--|
----------17------17------17------|--17------17------17------|
--------------15--------------15--|--------------15----------|


                                                                
--------------16--------------16--|--------------16------------|
----------16------16------16------|--16------16------16--------|
------14--------------14----------|------14--------------14----|
--15------------------------------|----------------------------|


                                                                           
------------------------|----------0-------------|------------------------|
------------------------|---------------0--0-----|------------------------|
------------------------|------------------------|------------------------|
--3----3----3--0--1--2--|--3----3-------------3--|--3----3----3--0--1--2--|


                                                                               
----------0---------------|------------------------|----------0---------------|
--------------4p3p0-------|------------------------|--------------4p3p0-------|
--------------------3-----|------------------------|--------------------3-----|
--3----3---------------3--|--3----3----3--0--1--2--|--3----3---------------3--|


                                                                       
------------------------|----------------------|----------------------|
------------------------|-------------------2--|----0-----------------|
------------------------|----------------------|---------3----1----0--|
--3----3----3--0--1--2--|--3----3----1---------|----------------------|


                                                                         
--------------------|------------------------|----------0---------------|
--------------------|------------------------|--------------4p3p0-------|
--------------------|------------------------|--------------------3-----|
----3----1----------|--3----3----3--0--1--2--|--3----3---------------3--|


                                                                       
------------------------|----------------------|----------------------|
------------------------|-------------------2--|----0-----------------|
------------------------|----------------------|---------3----1----0--|
--3----3----3--0--1--2--|--3----3----1---------|----------------------|


                                                                        
---------------------|-------------------|----------|------------------|
---------------------|-------------------|----------|------------------|
---------------------|-------------------|----------|------------------|
----3----1---------0-|--3----------------|----------|------------------|


                                                                              
------------------|--4----------------|------------------|--7----------------|
------------------|--6----------------|------------------|--9----------------|
------------------|--6----------------|------------------|--9----------------|
------------------|--4----------------|------------------|--7----------------|


                                                                              
------------------|--4----------------|------------------|--7----------------|
------------------|--6----------------|------------------|--9----------------|
------------------|--6----------------|------------------|--9----------------|
------------------|--4----------------|------------------|--7----------------|


                                                          
------------------|--4----------------|------------------|
------------------|--6----------------|------------------|
------------------|--6----------------|------------------|
------------------|--4----------------|------------------|


                                                                           
----------4--7---4------|----------4--7---4------|-------------4----------|
------4--------------4--|------4--------------4--|----------6------6------|
------------------------|------------------------|------6--------------6--|
--7---------------------|--7---------------------|--4---------------------|


                                                                           
-------------4----------|----------4--7---4------|----------4--7---4------|
----------6------6------|------4--------------4--|------4--------------4--|
------6--------------6--|------------------------|------------------------|
--4---------------------|--7---------------------|--7---------------------|


                                                                           
-------------4----------|-------------4----------|----------4--7---4------|
----------6------6------|----------6------6------|------4--------------4--|
------6--------------6--|------6--------------6--|------------------------|
--4---------------------|--4---------------------|--7---------------------|


                                                                           
----------4--7---4------|-------------4----------|-------------4----------|
------4--------------4--|----------6------6------|----------6------6------|
------------------------|------6--------------6--|------6--------------6--|
--7---------------------|--4---------------------|--4---------------------|


                                                                              
----------4--7---4------|----------4--7---4------|------------------------7--|
------4--------------4--|------4--------------4--|---------------------9-----|
------------------------|------------------------|---------------7--9--------|
--7---------------------|--7---------------------|--3-3--3-3--7--------------|


                                                                   
----9----7------------|-------------------------|-----------------|
--------------9----7--|--7-9--9-9-------7-------|-----------------|
----------------------|----------------------9--|-----------------|
----------------------|------------7------------|----9----7----5--|


                                                                             
------------------------7--|----9----7------------|-------------------------|
---------------------9-----|--------------9----7--|--7-9--9-9-------7-------|
---------------7--9--------|----------------------|----------------------9--|
--3-3--3-3--7--------------|----------------------|------------7------------|


                                                                     
-----------------|------------------------7--|----9----7------------|
-----------------|---------------------9-----|--------------9----7--|
-----------------|---------------7--9--------|----------------------|
----9----7----5--|--3-3--3-3--7--------------|----------------------|


                                                                        
-------------------------|-----------------|------------------------7--|
--7-9--9-9-------7-------|-----------------|---------------------9-----|
----------------------9--|-----------------|---------------7--9--------|
------------7------------|----9----7----5--|--3-3--3-3--7--------------|


                                                                   
----9----7------------|-------------------------|-----------------|
--------------9----7--|--7-9--9-9-------7-------|-----------------|
----------------------|----------------------9--|-----------------|
----------------------|------------7------------|----9----7----5--|


                                                                             
------------------------7--|----9----7------------|-------------------------|
---------------------9-----|--------------9----7--|--7-9--9-9-------7-------|
---------------7--9--------|----------------------|----------------------9--|
--3-3--3-3--7--------------|----------------------|------------7------------|


                                                                     
-----------------|------------------------7--|----9----7------------|
-----------------|---------------------9-----|--------------9----7--|
-----------------|---------------7--9--------|----------------------|
----9----7----5--|--3-3--3-3--7--------------|----------------------|


                                                                       
-------------------------|-----------------|--------------------------|
--7-9--9-9-------7-------|-----------------|--------------------------|
----------------------9--|-----------------|--0--0--0--0--0--0--0--0--|
------------7------------|----9----7----5--|--------------------------|


                                                      
--------------------------|--------------------------|
--------------------------|--------------------------|
--0--0--0--0--0--0--0--0--|--0--0--0--0--0--0--0--0--|
--------------------------|--------------------------|


                                                      
--------------------------|--------------------------|
--------------------------|--------------------------|
--0--0--0--0--0--0--0--0--|--0--0--0--0--0--0--0--0--|
--------------------------|--------------------------|


                                                      
--------------------------|--------------------------|
--------------------------|--------------------------|
--0--0--0--0--0--0--0--0--|--0--0--0--0--0--0--0--0--|
--------------------------|--------------------------|


                                                      
--------------------------|--------------------------|
--------------------------|--------------------------|
--0--0--0--0--0--0--0--0--|--0--0--0--0--0--0--0--0--|
--------------------------|--------------------------|


                                                      
--------------------------|--------------------------|
--------------------------|--------------------------|
--0--0--0--0--0--0--0--0--|--0--0--0--0--0--0--0--0--|
--------------------------|--------------------------|


                                                      
--------------------------|--------------------------|
--------------------------|--------------------------|
--0--0--0--0--0--0--0--0--|--0--0--0--0--0--0--0--0--|
--------------------------|--------------------------|


                                                      
--------------------------|--------------------------|
--------------------------|--------------------------|
--0--0--0--0--0--0--0--0--|--0--0--0--0--0--0--0--0--|
--------------------------|--------------------------|


                                                            
--------------------------|--------------------------------|
--------------------------|--------------------------------|
--0--0--0--0--0--0--0--0--|--0--0--0--0--0--0--0--0--0--0--|
--------------------------|--------------------------------|


                                                                      
----------------------------------|--4-4-4-4-6-6-6-6-9-9-9-9-6-6-6-6-|
------------------2-2-2-2-4-4-4-4-|----------------------------------|
----------2-2-2-2-----------------|----------------------------------|
--3-3-3-3-------------------------|----------------------------------|


                                                              
--4-4-4-4-4-------4-4-2-2-2-2-----|--------------------------|
------------------------------4-4-|--4-4---------------------|
------------2-2-2-----------------|------4-4-4-4-2-2-2-2-0-0-|
----------------------------------|--------------------------|


                                                                      
----------------------------------|--4-4-4-4-6-6-6-6-9-9-9-9-6-6-6-6-|
------------------2-2-2-2-4-4-4-4-|----------------------------------|
----------2-2-2-2-----------------|----------------------------------|
--3-3-3-3-------------------------|----------------------------------|


                                                              
--4-4-4-4-4-------4-4-2-2-2-2-----|--------------------------|
------------------------------4-4-|--4-4---------------------|
------------2-2-2-----------------|------4-4-4-4-2-2-2-2-0-0-|
----------------------------------|--------------------------|


                                                                      
----------------------------------|--4-4-4-4-6-6-6-6-9-9-9-9-6-6-6-6-|
------------------2-2-2-2-4-4-4-4-|----------------------------------|
----------2-2-2-2-----------------|----------------------------------|
--3-3-3-3-------------------------|----------------------------------|


                                                              
--4-4-4-4-4-------4-4-2-2-2-2-----|--------------------------|
------------------------------4-4-|--4-4---------------------|
------------2-2-2-----------------|------4-4-4-4-2-2-2-2-0-0-|
----------------------------------|--------------------------|


                                                                      
----------------------------------|--4-4-4-4-6-6-6-6-9-9-9-9-6-6-6-6-|
------------------2-2-2-2-4-4-4-4-|----------------------------------|
----------2-2-2-2-----------------|----------------------------------|
--3-3-3-3-------------------------|----------------------------------|


                                                              
--4-4-4-4-4-------4-4-2-2-2-2-----|--------------------------|
------------------------------4-4-|--4-4---------------------|
------------2-2-2-----------------|------4-4-4-4-2-2-2-2-0-0-|
----------------------------------|--------------------------|


                                                                      
----------------------------------|--4-4-4-4-6-6-6-6-9-9-9-9-6-6-6-6-|
------------------2-2-2-2-4-4-4-4-|----------------------------------|
----------2-2-2-2-----------------|----------------------------------|
--3-3-3-3-------------------------|----------------------------------|


                                                              
--4-4-4-4-4-------4-4-2-2-2-2-----|--------------------------|
------------------------------4-4-|--4-4---------------------|
------------2-2-2-----------------|------4-4-4-4-2-2-2-2-0-0-|
----------------------------------|--------------------------|


                                                                      
----------------------------------|--4-4-4-4-6-6-6-6-9-9-9-9-6-6-6-6-|
------------------2-2-2-2-4-4-4-4-|----------------------------------|
----------2-2-2-2-----------------|----------------------------------|
--3-3-3-3-------------------------|----------------------------------|


                                                              
--4-4-4-4-4-------4-4-2-2-2-2-----|--------------------------|
------------------------------4-4-|--4-4---------------------|
------------2-2-2-----------------|------4-4-4-4-2-2-2-2-0-0-|
----------------------------------|--------------------------|


                                                                      
----------------------------------|--4-4-4-4-6-6-6-6-9-9-9-9-6-6-6-6-|
------------------2-2-2-2-4-4-4-4-|----------------------------------|
----------2-2-2-2-----------------|----------------------------------|
--3-3-3-3-------------------------|----------------------------------|


                                                              
--4-4-4-4-4-------4-4-2-2-2-2-----|--------------------------|
------------------------------4-4-|--4-4---------------------|
------------2-2-2-----------------|------4-4-4-4-2-2-2-2-0-0-|
----------------------------------|--------------------------|


                                                                      
----------------------------------|--4-4-4-4-6-6-6-6-9-9-9-9-6-6-6-6-|
------------------2-2-2-2-4-4-4-4-|----------------------------------|
----------2-2-2-2-----------------|----------------------------------|
--3-3-3-3-------------------------|----------------------------------|


                                                              
--4-4-4-4-4-------4-4-2-2-2-2-----|--------------------------|
------------------------------4-4-|--4-4---------------------|
------------2-2-2-----------------|------4-4-4-4-2-2-2-2-0-0-|
----------------------------------|--------------------------|


                                                                      
----------------------------------|--4-4-4-4-6-6-6-6-9-9-9-9-6-6-6-6-|
------------------2-2-2-2-4-4-4-4-|----------------------------------|
----------2-2-2-2-----------------|----------------------------------|
--3-3-3-3-------------------------|----------------------------------|


                                                              
--4-4-4-4-4-------4-4-2-2-2-2-----|--------------------------|
------------------------------4-4-|--4-4---------------------|
------------2-2-2-----------------|------4-4-4-4-2-2-2-2-0-0-|
----------------------------------|--------------------------|


                                                                      
----------------------------------|--4-4-4-4-6-6-6-6-9-9-9-9-6-6-6-6-|
------------------2-2-2-2-4-4-4-4-|----------------------------------|
----------2-2-2-2-----------------|----------------------------------|
--3-3-3-3-------------------------|----------------------------------|


                                                              
--4-4-4-4-4-------4-4-2-2-2-2-----|--------------------------|
------------------------------4-4-|--4-4---------------------|
------------2-2-2-----------------|------4-4-4-4-2-2-2-2-0-0-|
----------------------------------|--------------------------|


                                                                      
----------------------------------|--4-4-4-4-----------------2-2-2-2-|
------------------2-2-2-2-4-4-4-4-|------------------2-2-2-2---------|
----------2-2-2-2-----------------|----------4-4-4-4-----------------|
--3-3-3-3-------------------------|----------------------------------|


                                                             
--4-4---4-4-4--4-4-4-2-2-2-2-----|--------------------------|
-----------------------------4-4-|--4-4---------------------|
------2--------------------------|------4-4-4-4-2-2-2-2-0-0-|
---------------------------------|--------------------------|


                                                       
----------------------------------|------------------||
------------------2-2-2-2-4-4-4-4-|------------------||
----------2-2-2-2-----------------|------------------||
--3-3-3-3-------------------------|------------------||
comments
We did not receive enough feedback on this tab! Please rate:
print report bad tab
1 2 3 4 5
I want to post or [tab]
guest
You may want to rate the tab now too:
select rating
Please do not post tabs as comments. Select "correction" instead!