Oops, an error
Loading. Please wait.

Siberian Khatru Bass Tab

by Yes
ver3
ver3

Whole song

More versions @911Tabs.com
937 views 1 this week
no commentswrite comment
1 2 3 4 5
accurate
x 2
Autoscroll
+/-
esc
set tempo
stop
Contributor
WARNING: You are trying to view
                                    content from Ultimate-Guitar.com
                                    in an unauthorized application,
                                    which is prohibited.

                                    Please use an official Ultimate
                                    Guitar Tabs application for iPhone,
                                    iPad or Android to access legitimate
                                    chords, guitar, bass, and drum tabs
                                    from Ultimate-Guitar.com database.

                                    Type "ultimate guitar tabs" in Apple
                                    App Store's or Android Market's
                                    search to find the application.
Yes
Siberian Khatru
bass tab

  0.00    intro                  t:130                          4:4   2:4
|----------------|----------------|----------------|----------------|--------|
|----------------|----------------|----------9-----|7---------------|--------|
|----------------|----------------|7-----------7---|----------------|--------|
|----------------|----------------|----------------|--------7-------|--------|

          theme 1                                      4:4   3:4
  0.10  |----------------|----------------|----------------|------------|
        |--------------0-|--2---0---------|9-----9---7\--4-|------------|
        |------2-----2---|--------------9-|-9--------------|--5---2---0-|
        |3-------0-------|----------7-----|--777-----------|------------|

  0.17  |4--------^--4---|---------------^|----------------|------------|
        |-4---^--0-2---0-|--2---0---9---7-|9-----9---7-----|------------|
        |--2-0-2---------|----------------|-9------------9-|----------0-|
        |----------------|----------------|--777-----------|--10--7-----|

  0.24  |----------------|----------------|----------------|------------|
        |9-----------9-0-|--2---0---9-----|9---9-9---7\--4-|--0---------|
        |-9---^--5/7-----|--------------9-|-999-9----------|------2---0-|
        |--7-5-7---------|----------------|----------------|------------|

  0.32  |---------^--4---|----------4-----|4-----4---2-----|------------|
        |-^^^-^--0-2---0-|--2---0-------4-|-4------------4-|------------|
        |43200-2---------|----------------|--222-----------|--5---------|
        |----------------|----------------|----------------|-----/7---5-|

  0.39  |----------------|----------------|----------------|------------|
        |7--7/9---^--9-0-|--2---0---9-----|9-----9---7\--4-|------------|
        |-00-0---7-9-----|--------------9-|-9--------------|--5---2---0-|
        |----------------|----------------|--777-----------|------------|

  0.46  |4--------^--4---|----------------|----------------|------------|
        |-4---^--2-4---0-|--2---0---9-----|9-----9---7\--4-|------------|
        |--2-0-2---------|--------------9-|-9--------------|--5---2---0-|
        |----------------|----------------|--777-----------|------------|

  0.53  verse 1
|----------------|----------------|----------------|-------------12-|----------------|-------------12-|
|----------------|----------------|----------------|---------11/12--|----------------|---------11/12--|
|----------------|----------------|----------------|----------------|----------------|----------------|
|3---3---3-0-1-2-|3---3---3--01-2-|3---3---3-001-2-|3---3---3-------|3---3---3-001-2-|3---3---3-------|

  1.05
|----------------|----------------|----------------|---------------^|----^-----------|----------------|
|----------------|----------------|----------------|--------------2-|1--10-----------|----------------|
|----------------|----------------|----------------|----------------|------3---1---0-|----------------|
|3---3---3-0-1--2|3---3---3-0-1-2-|3---3---3-0-1-22|3---3---1-0-0---|----------------|--3---1-----1-1-|

  1.17
|----------------|----------------|----------------|----------------|---^------------|----------------|
|----------------|----------------|----------------|--------------2-|--1-0-----------|----------------|
|----------------|----------------|----------------|----------------|------3---1---0-|----------------|
|3---3---3-0-1-2-|3---3---3--01-2-|3---3---3-0-1--2|3---3---1--00---|----------------|--3---1-------1-|


  1.29   chorus 1
|----------------|----------------|----------------|
|----------------|----------------|----------------|
|----------------|----------------|----------------|
|3-3^-----------.|3-3^-----------.|3-3^------------|
                                                                4:4   6:4
|2---0-2---0-----|2---0-2---0-0---|----------------|----------------|------------------------|
|--2-----------2-|--2-----------2-|----2-4---2-----|----2-4-----^---|------------------------|
|----------------|----------------|--4-----------4-|--4--------24---|------------------------|
|----------------|----------------|2---------------|2---------------|3-----------------------|

                                   |----------12----------------|----------16----------------|
                                   |------12------12------12----|------16------16------16----| 7:4
                                   |--10--------------10--------|--14--------------14--------|
                                   |----------------------------|----------------------------|

                                   |----------12----------------|----------16----|------------.-|
                                   |------12------12------12----|------16------16|------16------| 7:8
                                   |--10--------------10--------|--14------------|--14----------|
                                   |----------------------------|----------------|--------------|
    2.00  verse 2
|----------------|----------------|----------------|----------------|
|----------------|------------1717|----------------|----------------|
|----------------|-----------//17-|----------------|----------------|
|3---3---3-0-1-2-|3--.3---3-//----|3---3---3-0-1-2-|3---3---3-0-1-2-|

  2.08
|----------------|----------------|----------------|---------------^|----^-----------|----------------|
|----------------|----------1717--|----------------|--------------2-|1--10-----------|----------------|
|----------------|---------//17-.\|----------------|----------------|------3---1---0-|----------------|
|3---3---3-0-1--2|3---3---3-------|3---3---3-0-1---|3---3--.1-0-0---|----------------|--3---1---1-1-1-|

  2.20
|----------------|----------------|----------------|---------------^|----^-----------|----------------|
|------------1717|----------------|----------------|--------------2-|1--10-----------|----------------|
|-----------//17\|----------------|----------------|-----^-------^--|------3---1---0-|----------------|
|3---3---3-//---\|3---3---3-0-1-2-|3---3---3-001--2|3---3-0-1-1-10--|----------------|--3---1---1-1-1.|


  2.32  chorus 2
|----------------|----------------|----------------|
|----------------|----------------|----------------|
|----------------|----------------|----------------|
|3-3^-----------.|3-3^-----------.|3-3^------------|
                                                                4:4   6:4
|2---0-2---0-----|--2-------0---2-|----------------|----------------|------------------------|
|--2-----------2-|------2---------|4---2-4---2-----|----------4-----|5-----------------------|
|----------------|----------------|--4-----------4-|------4---------|------------------------|
|----------------|----------------|----------------|2---------------|------------------------|

  2.50
|----------------|----------------|----------------|----------------|
|9---7-9---7-----|9---7-9---7-----|6---4-6---4-----|6---4-6---4-----|
|--9--------979--|--9--------979--|---6-------64---|--6--------64---|
|--------------7-|--------------7-|-------------64-|-------------64-|

|4---2-4---2-----|4---2-4-4-2-----||----------------------------9---|----11------12------12--11--9---|
|--4--------424--|--4--------424--||--------------------------------|--------------------------------|
|--------------2-|--------------2-||--------------------------------|--------------------------------|
|----------------|----------------||3-------------------------------|--------------------------------|

  3.06   solo                 4:4    4 : 4
|----------------|----------------||--------------------------------|--------------------------------|
|------4---4-4-0-|----------------||--------------------------------|--------------------------------|
|----------------|----4---2-----2-||2--/4---4---4--/5---5--/7---7---|------------14------14----------|
|2---------------|----------------||--------------------------------|12--14--16------16------161412--|

  3.15   harpsichord               |--------------------------------|--------------------------------|
                                   |--------------------16----------|------------18--16--------------|
                                   |------------14-/16------16------|17------16----------14------16--|
                                   |14--16--17------------------17--|----17--------------------------|

                                   |--------------------------------|--------------------------------|
                                   |--------------------16------14--|----16------17----1717--16--14--|
                                   |------------14--16------16------|--------------------------------|
                                   |14--16--17----------------------|--------------------------------|

                                   |--------------------------------|--------------------------------|
                                   |--------------------16----------|------------18--16--------------|
                                   |------------14-/16------16------|17------16----------14----------|
                                   |14--16--17------------------17--|----17--------------------------|

                                   |--------------------------------|--------------------------------|
                                   |1111--------1212--------14------|--------------------------------|
                                   |--------------------------------|16------------------------------|
                                   |----9-----------10--------------|--------------------------------|
    3.31   slide
|----------------|----------------|----------------|----------------|
|44----44--4-44--|----------------|44----44------2-|--4---5---5-4-2-|
|----------------|5---4---2-------|----------------|----------------|
|--2-----2-----2-|----------------|--2-----2--.2---|----------------|

|-^--------------|----------------|----------------|----------------|
|24----44--4-44--|----------------|----------------|------9---9--^\-|
|----------------|5---4---2-----2-|2/4-4-4/5-5-5/7-|7-9-11--11--11.7|
|--2-----2-----2-|----------------|----------------|----------------|

  3.47   solo
|----------------|----------------|----------------|----------------|
|----------------|----------------|-----------^----|----------------|
|9-9-9-9-9-9-9-9-|9-9-9-9-9-9-9-9-|9-9-9-----97----|----------------|
|----------------|----------------|------------9-0-|--2---3---3-2-0-|

|----------------|----------------|----------------|----------------|
|----------------|----------------|----------------|------9---9-----|
|----------------|----------------|2/4-4-4/5-5-5/7-|7-9-11--11--11\-|
|2-2-2-2-2-2-2-2-|2-2-2-2-2-2-2-2-|----------------|----------------|
                                                                         2:4
|----------------|----------------|----------------|----------------|--------|
|4---------------|----------------|4---------------|----------------|--------|
|----------------|2-------4-------|----------------|2-------4-------|--------|
|----------------|----------------|----------------|----------------|--------|

  4.14           |--------------79|7------(7)------|--------(7)-----(7)-----(7)------|
- harmonics -    |------------79--|-----(7)-----(12)------(7)-(7)-(7)-(7)-(7)-(7)-(7)|
                 |5---------------|-----------(12)-(12)-(7)-----(7)-|---(7)-----(7)--|
                 |----------------|----------------|----------------|----------------|

                 |(7)-----(7)-----(7)-----(7)------|(7)-----(7)-----(7)-----(7)------|
                 |--(7)-(7)-(7)-(7)-(7)-(7)-(7)-(7)|--(7)-(7)-(7)-(7)-(7)-(7)-(7)-(7)|
                 |----(7)-----(7)-|---(7)-----(7)--|----(7)-----(7)-|---(7)-----(7)--|
                 |----------------|----------------|----------------|----------------|

  4.31           |(7)----(12)-----|12------12------|12------12------|16------16------|16------16------|
                 |-----(12)(12)-12|--12--12--12--12|--12--12--12--16|--16--16--16--16|--16--16--16----|
                 |------------10--|----10------10--|----10-----/14--|----14------14--|----14------14--|
                 |----------------|----------------|----------------|----------------|--------------15|

                                          7:8   |--------------|--------|----16------|16------16----:-|
                                                |--17------17--|----17--|--16--16--16|--16--16--16----|
                                                |17--17--17--17|--17----|14------14--|----14------14--|
                                                |------15------|15----15|------------|----------------|
  4.48  verse 3
|----------------|----------^-----|----------------|----------^^----|
|----------------|------5--30-^^--|----------------|------5--030-^--|
|----------------|-----------430--|----------------|------------35--|
|3---3---3-0-1-2-|3---3---------3-|3---3---3-0-1-2-|3---3---------3-|

  4.57
|----------------|----------^^----|----------------|----------------|--^-^-----------|----------------|
|----------------|------5--430-^--|----------------|----------------|2--10--------^^-|-^--------------|
|----------------|------------35--|----------------|--------=-=-=---|------3---1-010-|10--------------|
|3---3---3-0-1-2-|3---3---------3-|3---3---3-0-1-.2|3---3--.1-1-1-0-|--------------3-|---3--1-11-11-1-|

  5.09
|----------------|----------^^----|----------------|----------------|--^-------------|----------------|
|----5-----------|------5--030-^--|----------------|----------------|2--0--0------^--|-^--------------|
|----------------|------------35--|----------------|--------------2-|----3---3-1-10--|31--------------|
/3-------3\0-1-2-|3---3---------3-|3---3---3-0-1-2-|3---3--.1-1-1---|--------------3-|---3--1-----1---|

  5.21    t:100  |------------|------------|------------|------|
          6:8    |------------|------------|------------|------|  3:8
                 |------------|------------|------------|------|
                 |3-----------|------------|------------|------|
    5.29    t:130
|----------------|----------------|----------------|----------------|
|9---------------|----------------|10--------------|----------------|
|-9--------------|----------------|-9--------------|----------------|
|--7-------------|----------------|--7-------------|----------------|

|----------------|----------------|7---------------|----------------|4---------------|----------------|
|11--------------|----------------|-9--------------|----------------|-6--------------|----------------|
|-9--------------|----------------|--9-------------|----------------|--6-------------|----------------|
|--7-------------|----------------|---7------------|----------------|---4------------|----------------|

  5.50
|--------7-------|--------7-------|--------4-------|--------4-------|
|------9----9----|------9----9----|------6----6----|------6----6----|x
|---9----------9-|---9----------9-|---6----------6-|---6----------6-|3
|7---------------|7---------------|4---------------|4---------------|

|--------7-------|--------7-------|
|------9----9----|------9----9----|
|---9----------9-|---9----------9-|
|7---------------|7---------------|

  6.18           |--------------7-|--9---7---------|----------------|----------------|
                 |----^-9-----9---|----------9---7-|97--------7-----|----------------|
                 |10-910--7-10----|----------------|--975---------9\|--5-------------|
                 |----------------|----------------|------7---------|------7---5-7-0-|

  6.26               |-----^--4---|----------------|----------------|----------------|
                3:4  |-^--0-2---0-|--2---0---9---7-|97----9---7-----|----------------|
                     |0-2---------|----------------|--9-----------9\|--5----------^^-|
                     |------------|----------------|----7-----------|------7---5-750-|

  6.33               |----------7-|--9-9-7-7-------|----------------|----------------|
                3:4  |--------9---|----------9\--7/|9-9-9-----7-----|----------------|
                     |-^--5/7-----|----------------|-9-9----------9\|--5-------------|
                     |5-7---------|----------------|------7-7-------|------7---5-0---|

  6.40               |-----^--4---|----------------|----------------|----------------|
                3:4  |-^--0-2---0-|--2---0---9---7-|9-999-9---7\--4-|----------------|
                     |0-2---------|----------------|-9--------------|--5-------------|
                     |------------|----------------|----------------|------7---5-7-0-|

  6.47               |----------7-|--9---7-7------^|----------------|----------------|
                3:4  |--------9---|----------9---7-|9-9-9-----7-7---|----------------|
                     |-^--5/7-----|----------------|-9-9----------9-|9---------------|
                     |5-7---------|----------------|------7-7-------|--10--7\--5-7-0-|

  6.54               |-----^--4---|----------------|----------------|------------|
                3:4  |-^--0-2---0-|--2---0---------|99----9---7\--4-|------------|  3:4
                     |0-2---------|----------2---0-|--999-----------|--5---2---0-|
                     |------------|----------------|----------------|------------|

  7.01           |----------------|
                 |----------------|*
                 |----------------|*
                 |5-5-5-5-5-5-5-5-|...

  7.33           |----------------|----------------|----------------|------------|
                 |----------------|--12..14..12..--|----------7-----|------------|  3:4
                 |----------10/-14|----------------|14..----------9\|--5---------|
                 |3----/7-0-------|----------------|----14\7--------|------7---5-|

  7.40           |---------^------|4---------..4---|------4..-2..---|----------------|
                 |-----^--0-2-2-2-|--0-2...4-------|--------------4-|4-0-0-----------|
                 |----0-2---------|--------------2.|2....-----------|----------------|
                 |0---------------|----------------|----------------|------7..-5.700-|...
  


standard tuning (EADG)

| /  slide up
| \  slide down

| .   incidental note (usually open string)
| ^   pre-struck note (hammer-on, pull-off)
| =   rest

| X   10
| E   11
| T   12
| H   13
| F   14


display in fixed-width font
one space ("-") = 1/16 note

tabbed by
spaceyhippie
dudeman.net/jam

comments
We did not receive enough feedback on this tab! Please rate:
print report bad tab
1 2 3 4 5
I want to post or [tab]
guest
You may want to rate the tab now too:
select rating
Please do not post tabs as comments. Select "correction" instead!