Oops, an error
Loading. Please wait.

South Side Of The Sky Bass Tab

by Yes
4,429 views 27 this week
no commentswrite comment
1 2 3 4 5
excellent!
x 2
Autoscroll
+/-
esc
set tempo
stop
Contributor
WARNING: You are trying to view
                                    content from Ultimate-Guitar.com
                                    in an unauthorized application,
                                    which is prohibited.

                                    Please use an official Ultimate
                                    Guitar Tabs application for iPhone,
                                    iPad or Android to access legitimate
                                    chords, guitar, bass, and drum tabs
                                    from Ultimate-Guitar.com database.

                                    Type "ultimate guitar tabs" in Apple
                                    App Store's or Android Market's
                                    search to find the application.
Yes
South Side of the Sky
bass tab

  0.19    verse 1
|----------------|----------------|----------------|----------------|
|2---2---2-----2-|2---2---2-------|2---2---2-------|2---2---2---2---|
|----------------|----------------|----------------|----------------|
|--00--00--000--0|-000-000--000-00|-000-000--.00-00|--00--00--00-000|

                 |----------------|----------------|----------------|
                 |----------------|----------------|----------------|
                 |--------/-------|----------------|----------------|
  0.31           |1-111-113-333-33|333-3-3-33333-3-|3333333333333333|

  0.40  chorus 1 |----------------|----------------|----------------|
                 |----------24----|42--------24----|42--------24----|
                 |9\-0-0-024--24--|--40-0-024--2---|--40-0-024--24--|
                 |--------------2-|--------------2-|--------------2-|

                                  |----------------|--------------8-|
                                  |64--------46----|64--------4668--|
  0.49                            |--62-2-246--46--|--62-2-246---/--|
                                  |---------/----4-|---------/------|
  0.55   verse 2
|----------------|----------------|----------------|----------------|
|----------------|----------------|----------------|----------------|
|7--7----7---7---|7---7-----------|7---7---7---7---|7---7---7---7---|
|-00-00-.-0-.-000|-000-00000000000|-000-000---.-000|-000-000-0-.-000|

                 |----------------|----------------|----------------|
                 |----------------|----------------|----------------|
                 |--------/-------|----------------|----------------|
  1.07           |1-1111-13.3-3-3-|3-3-3-3-322-210-|3-3-3-3-3-3-3210|

  1.15  chorus 2 |----------------|----------------|----------------|
                 |42--------2424--|42--------24----|42--------24----|
                 |--40-0-024------|--40-0-024--24--|--40-0-024--24--|
                 |--------------2-|--------------2-|--------------20|

                                  |----------------|--------------8-|
                                  |64--------46----|64--------4668--|
  1.24                            |--62-2-246--46--|--62-2-246---/--|
                                  |---------/----4-|---------/------|
  1.30   verse 3
|----------------|----------------|----------------|----------------|
|----------------|----------------|----------------|----------------|
|----------------|----------------|----------------|----------------|
|00-.0-..0-..0--.|0--.0-..0-..0.-.|0...0...0..-0...|0...0...0.0.0-00|

                 |----------------|----------------|----------------|
                 |----------------|----------------|----------------|
                 |--------/-------|----------------|----------------|
  1.42           |11..1...3.3.3.3.|3.3.3.3.322.233-|3.3.3.3.3.3.3210|

  1.51  chorus 3 |----------------|----------------|----------------|
                 |42--------24----|42--------24----|42--------24----|
                 |--40-0-024--24--|--40-0-024--2---|--4040-024--24--|
                 |--------------2-|--------------2-|--------------2-|

                                  |----------------|------------46--|
                                  |64--------46----|64--------46----|
  2.00                            |--62-2-246--46--|--62-2-246----4-|
                                  |---------/----4-|---------/------|
  2.06  piano solo  7:8
|--------------|--------------|--------------|--------------|  |--------
|--------------|--------------|--------------|--------------|* |0-----
|5-------------|--------------|--------------|--------------|* |----
|--------------|1-------------|4-------------|7-------------|  |--

    3.06            5:4
|--------------------|--------------------|--------------------|--------------------|
|--9-----12-10-9-----|--9-----12-10-9-----|--9-----12-10-9-----|--------------------|*
|-----------------12-|-----------------12-|-----------------12\|------------3-------|*
|--------------------|--------------------|--------------------|3------5-------0----|

|--------------------|--------------------|
|--9-----12-10-9-----|--9-----12-10-9\-7--|
|-----------------12-|--------------------|
|--------------------|--------------------|

  3.46                    7:8 9:8                                        7:8
|--------7---8-8-8-8-8-8-10--|------------9-------1010101012----12|----------------------------|
|8---8-----------------------|10------10--------------------------|0---------------------------|
|----------------------------|------------------------------------|----------------------------|
|----------------------------|------------------------------------|----------------------------|

  3.54
|--------7---8-8-8-8---8-10--|------------9---9^101010101012----12|----------------------------|
|8---8-----------------------|10------10--------------------------|0---------------------------|
|----------------------------|------------------------------------|----------------------------|
|----------------------------|------------------------------------|----------------------------|

  4.03                   7:8   8:8                              9:8
|--------7-------8-8-8---10--|--------------------------------|--------14------15------16------17--|
|8---8-----------------------|--------14------15------16------|17----------------------------------|
|----------------------------|15------------------------------|------------------------------------|
|----------------------------|--------------------------------|------------------------------------|

  4.11                       |17------------------------------|--------------------------------|
                             |----17--14------------------8---|--------------------------------|
                             |------------15------------------|10--8---------------------------|
                             |--------------------------------|--------10-8-6----------8-------|
  4.17
|--------------|--------------|--------------|--------------|
|0-------------|--------------|--------------|--------------|*
|--------------|--------------|--------------|--------------|*
|--------------|1-------------|4-------------|7-------------|

  4.37                   7:8   9:8                                  7:8
|--------7-------8-8-----10--|------------9-------101010--12----12|----------------------------|
|8---------------------------|10----------------------------------|0---------------------------|
|----------------------------|------------------------------------|----------------------------|
|----------------------------|------------------------------------|----------------------------|

  4.46
|--------7-------8-8-8---10--|------------9-------1010101012----12|----------------------------|
|8-8-8-----------------------|10------10--------------------------|0---------------------------|
|----------------------------|------------------------------------|----------------------------|
|----------------------------|------------------------------------|----------------------------|


  4.54                   7:8   8:8                              9:8
|--------7-------8-8-8-8-10--|--------------------------------|--------14------15------16------17--|
|8---8-----------------------|--------14------15------16------|17----------------------------------|
|----------------------------|15------------------------------|------------------------------------|
|----------------------------|--------------------------------|------------------------------------|

  5.02                       |17------------------------------|--------------------------------|----
                             |----17--14------------------8---|--------------------------------|0--
                             |------------15------------------|10--8---------------------------|--
                             |--------------------------------|--------10-8-6----------8-------|-
  5.41   verse 4
|----------------|----------------|----------------|----------------|
|----------------|----------------|----------------|----------------|
|----7--7-7--7---|7---7--7----7---|7---7---7---7---|7---7---7---7---|
|0-00-00-0--0-00-|--00--0--000-00-|-000-000---0-00-|-000-000--00-00-|

                 |----------------|----------------|----------------|
                 |----------------|----------------|----------------|
                 |--------/-------|----------------|----------------|
  5.54           |11111-1133333333|3333333-320-320-|333333333333333-|

  6.03  chorus 4 |----------------|----------------|----------------|
                 |----------2424--|42--------24----|42--------24----|
                 |9\-0-0-024------|--40-0-024--24--|--40-0-024--24--|
                 |--------------2-|--------------2-|--------------2-|

                                  |----------------|--------------8-|
                                  |64--------46----|64--------4668--|
  6.12                            |--62-2-246--46--|--62-2-246---/--|
                                  |---------/----4-|---------/------|

  6.18   verse 5
|----------------|----------------|----------------|----------------|
|----------------|----------------|----------------|----------------|
|----7--7-7--7---|7---7---7-7-7-7-|7---7--7-7--7---|7---7--7-654----|
|0000--0----0-00-|-000-000-0-0-0-0|-000-00-0-00-00-|--00-00-----7654|

                 |----------------|----------------|----------------|
                 |----------------|----------------|----------------|
                 |--------/-------|----------------|----------------|
  6.31           |1---1-1133333333|3333333-322-3-22|333333333333333-|

  6.40  chorus 5 |----------------|----------------|----------------|
                 |----------24----|42--------24----|42--------24----|
                 |9\---0--24--24--|--40-0-024--2---|--40-0-024--24--|
                 |--------------2-|--------------2-|--------------2-|

  6.49           |----------------|
                 |64--------46----|*
                 |--62-2-246--46--|*...
                 |---------/----4-|
  


standard tuning (EADG)

| /  slide up
| \  slide down

| .   incidental note (usually open string)
| ^   pre-struck note (hammer-on, pull-off)
| =   rest

| X   10
| E   11
| T   12
| H   13
| F   14


display in fixed-width font
one space ("-") = 1/16 note

tabbed by
spaceyhippie
dudeman.net/jam

comments
We did not receive enough feedback on this tab! Please rate:
print report bad tab
1 2 3 4 5
I want to post or [tab]
guest
You may want to rate the tab now too:
select rating
Please do not post tabs as comments. Select "correction" instead!