Oops, an error
Loading. Please wait.

Tempus Fugit Bass Tab

by Yes
ver1
ver1

Whole song

Interactive

More versions @911Tabs.com
4,810 views 24 this week
1 commentread comment
1 2 3 4 5
excellent!
x 2
Autoscroll
+/-
esc
set tempo
stop
Contributor
Difficulty
advanced
Hey! There's an official Ultimate Guitar app which is ideal
for learning songs when you're away from computer. Get the app
WARNING: You are trying to view
                                    content from Ultimate-Guitar.com
                                    in an unauthorized application,
                                    which is prohibited.

                                    Please use an official Ultimate
                                    Guitar Tabs application for iPhone,
                                    iPad or Android to access legitimate
                                    chords, guitar, bass, and drum tabs
                                    from Ultimate-Guitar.com database.

                                    Type "ultimate guitar tabs" in Apple
                                    App Store's or Android Market's
                                    search to find the application.
Tempus Fugit - Yes from "Drama"

Bass TAB, Standard tuning

     W                   W                   W                 
G||-------------------|-------------------|-------------------|
D||-------------------|-------------------|-------------------|
A||-------------------|-------------------|-------------------|
E||-------------------|-------------------|-------------------|


  W                   W                   E  S E  S Q.     Q     
-------------------|-------------------|--2---------------------|
-------------------|-------------------|-------2----------------|
-------------------|-------------------|------------2-----------|
-------------------|-------------------|------------------------|


  E  S E  S Q.     Q       E  S E  S Q.     Q       E  S E  S H        E   
--0---------------------|------------------------|------------------------|
-------0----------------|--3---------------------|------------------------|
------------0-----------|-------3----------------|--0----0----2--------L--|
------------------------|------------3-----------|------------------------|


  E  S E  E  S E  S E  E  S    E  S E  S E  E  S E  S E   
----------------------------|----------------------------|
----------------------------|----------------------------|
--2----2--2----2----2--2----|--2----2----2--2----2----2--|
----------------------------|----------------------------|


  E  S E  S E  E  S E  S E     E  S E  S E  E  S E  S E   
----------------------------|----------------------------|
----------------------------|----------------------------|
--2----2----2--2----2----2--|--2----2----2--2----2----2--|
----------------------------|----------------------------|


  E  S E  S E  E  S E  S E     E  S E  S E  E  S E  S E   
----------------------------|----------------------------|
----------------------------|----------------------------|
--2----2----2--2----2----2--|--2----2----2--2----2----2--|
----------------------------|----------------------------|


  E  S E  S E  E  S E  S E     S E  Q    S    H.           E  E   
----------------------------|--------------|---------------------|
----------------------------|--------------|---------------------|
--2----2----2--2----2----2--|--0-0--2----L-|------------------7--|
----------------------------|--------------|---------------------|


  E  E  E  E  E  E  E  E     E  E  E  E  E  E  E  E     E  E  E  Q    E  E  E   
-----------------7--6-----|--9--7--6-----------------|---------------------|
--------5--7--9--------7--|-----------9--7--6--------|--------9----------7-|
--L--9--------------------|--------------------9--7--|--L--7-----5----5----|
--------------------------|--------------------------|--------------------8|


  E  E  E  Q    E  Q       E  E  E  E  E  E  E  E     E  E  E  E  E  E  E  E   
------------------------|-----------------7--6-----|--9--7--6--------------|
--------5----------7----|--------5--7--9--------7--|-----------9--7--6-----|
-----------5----5-------|--7--9--------------------|--------------------9-7|
--L--8------------------|--------------------------|-----------------------|


  E  E  E  Q    E  E  E     E  E  E  E  E  E  E  E     E  E  E  E  E  E  E  E   
-------------------------|--------------------------|-----------------7--6-|
--------9----------7-----|--------------------------|--------5--7--9------7|
--L--7-----5----5--------|-----------------5--7--9--|--7--9----------------|
----------------------8--|--L--8--8--8--8-----------|----------------------|


  E  E  E  E  E  E  E  E     E  E  Q    E  E  Q       E  E  Q    E  E  Q     
--9--7--6-----------------|------------------------|-----------------------|
-----------9--7--6--------|--------9----------7----|--------5----------7---|
--------------------9--9--|--7--7-------5--5-------|-------------5--5------|
--------------------------|------------------------|--8--8-----------------|


  E  E  E  E  E  E  E  E     E  E  E  E  E  E  E  E     E  E  Q    E  E  E  E   
-----------------7--6-----|--9--7--6-----------------|---------------------|
--------5--7--9--------7--|-----------9--7--6--------|--------9----------7-|
--7--9--------------------|--------------------9--9--|--7--7-------5--5----|
--------------------------|--------------------------|--------------------8|


  H.           E  E     E  E  E  E  E  E  E  E     E  E  E  E  E  E  E  E   
---------------------|-----------------7--6-----|--9--7--6--9--7--6--9--7--|
---------------------|--------5--7--9--------7--|--------------------------|
------------------7--|--L--9--------------------|--------------------------|
--L------------L-----|--------------------------|--------------------------|


  E  E  E  E  E  E  E  E     W                   W                 
--6--9--7--6--7--6--------|-------------------|-------------------|
--------------------9--7--|--L----------------|--L----------------|
--------------------------|-------------------|-------------------|
--------------------------|-------------------|-------------------|


  W                   E  E  E  E  E  E  E  E     E  E  E  E  E  E  E  E   
-------------------|--------------------------|--------------------------|
--L----------------|--7--7--7--7--7--7--7--7--|--7--7--7--7--7--7--7--7--|
-------------------|--------------------------|--------------------------|
-------------------|--------------------------|--------------------------|


  E  E  E  E  E  E  E  E     E  E  E  E  E  E  E  E   
--------------------------|--------------------------|
--7--7--7--7--7--7--7--7--|--7--7--7--7--7--7--7--7--|
--------------------------|--------------------------|
--------------------------|--------------------------|


  E  E  E  E  E  E  E  E     E  E  E  E  E  E  E  E   
--------------------------|-----------------7--6-----|
--7--7--7--7--7--8--9-----|--------5--7--9--------7--|
-----------------------7--|--L--9--------------------|
--------------------------|--------------------------|


  E  E  E  E  E  E  E  E     E  E  E  E  E  E  E  E     E  E  E  E  E  E  Q     
--9--7--6-----------------|--------------------------|---------------------|
-----------9--7--6--------|-----------------0--------|-----------------0---|
--------------------9-----|-----------0--2-----4--0--|-----------0---------|
--------------------------|--0--2--3-----------------|-----2--3------------|


  E  E  E  E  E  E  E  E     E  E  E  E  E  E  Q       E  E  E  E  E  E  E  E   
--------------------------|-------------------------|----------------------|
-----------------0--------|-----------------0-------|-----------------0----|
-----------0--2-----4--0--|-----------0--------4----|-----------0--2-----40|
--0--2--3-----------------|-----2--3----------------|--0--2--3-------------|


  E  E  E  E  E  E  E.  S    E  E  E  E  E  E  E  E     E  E  E  E  E  E  Q     
--------------------------|--------------------------|---------------------|
-----------------0--------|-----------------0--------|-----------------0---|
-----------0--------4-----|-----------0--2-----4--0--|-----------0--------4|
-----2--3-----------------|--0--2--3-----------------|-----2--3------------|


  E  E  E  E  E  E  E  E     E  E  E  E  E  E  Q       E  E  E  E  E  E  E  E   
--------------------------|-------------------------|----------------------|
-----------------0--------|-----------------0-------|-----------------0----|
-----------0--2-----4--0--|-----------0--------4----|-----------0--2-----40|
--0--2--3-----------------|-----2--3----------------|--0--2--3-------------|


  E  E  E  E  E  E  E  E      E  E  E  E  E  E  E  E   
---------------------------|-----------------7--6-----|
-----------------0-----2S--|--L--4--5--7--9--------7--|
-----------0--------4------|--------------------------|
-----2--3------------------|--------------------------|


  E  E  E  E  E  E  E  E     E  E  E  E  E  E  E  E     E  E  E  E  E  E  Q     
--9--7--6-----------------|--------------------------|---------------------|
-----------9--7--6--------|-----------------0--------|-----------------0---|
--------------------9--7--|-----------0--2-----4--0--|-----------0--------4|
--------------------------|--0--2--3-----------------|-----2--3------------|


  E  E  E  E  E  E  E  E     E  E  E  E  E  E  Q       E  E  E  E  E  E  E  E   
--------------------------|-------------------------|----------------------|
-----------------0--------|-----------------0-------|-----------------0----|
-----------0--2-----4--0--|-----------0--------4----|-----------0--2-----40|
--0--2--3-----------------|-----2--3----------------|--0--2--3-------------|


  E  E  E  E  E  E  Q       E  E  E  E  E  E  E  E   
-------------------------|--------------------------|
-----------------0-------|-----------------0--------|
-----------0--------4----|-----------0--2-----4--0--|
-----2--3----------------|--0--2--3-----------------|


  E  E  E  E  E  E  E  E      E  E  E  E  E  E  E  E   
---------------------------|-----------------7--6-----|
-----------------0-----2S--|--L--4--5--7--9--------7--|
-----------0--------4------|--------------------------|
-----2--3------------------|--------------------------|


  E  E  E  E  E  E  E  E     Q.     H        E     Q.     H        E   
--9--7--6-----------------|---------------------|---------------------|
-----------9--7--6--------|------------------5--|--L------------------|
--------------------9--7--|--L------9-----------|---------9--------7--|
--------------------------|---------------------|---------------------|


  E  E  E  E  E  E  E  E     E  E  E  E  E  E  E  E     Q    E  Q.     E  E   
-----------------7--6-----|--9--7--6-----------------|---------------------|
--------5--7--9--------7--|-----------9--7--6--------|-------9---------7---|
--L--9--------------------|--------------------9--7--|--L-------5----------|
--------------------------|--------------------------|--------------------8|


  E  E  E  E  Q.     E     E  E  E  E  Q.     E     E  E  E  E  Q.     E   
------------------------|------------------------|------------------------|
-----------8------------|-----------6------------|-----------4------------|
-----8------------------|-----6------------------|-----4------------------|
---------------------6--|---------------------4--|---------------------2--|


  E  E  E  Q.     E  E     E  E  E  E  Q.     E     E  E  E  E  Q.     E   
------------------------|-----------3------------|-----------1------------|
-----------3------------|-----3------------------|-----1------------------|
-----3---------------3--|---------------------1--|------------------------|
------------------------|------------------------|---------------------4--|


  E  E  E  E  Q.     E     W                   E  E  E  E  E  E  E  E   
------------------------|-------------------|--------------------------|
-----------4---------4--|--L----------------|-----------------0--------|
-----4---------------2--|--L----------------|-----------0--2-----4--0--|
------------------------|-------------------|--0--2--3-----------------|


  E  E  E  E  E  E  Q       E  E  E  E  E  E  E  E     E  E  E  E  E  E  Q     
-------------------------|--------------------------|----------------------|
-----------------0-------|-----------------0--------|-----------------0----|
-----------0--------4----|-----------0--2-----4--0--|-----------0--------4-|
-----2--3----------------|--0--2--3-----------------|-----2--3-------------|


  E  E  E  E  E  E  E  E     E  E  E  E  E  E  Q       E  E  E  E  E  E  E  E   
--------------------------|--------------------------|---------------------|
-----------------0--------|-----------------0-------|-----------------0----|
-----------0--2-----4--0--|-----------0--------4----|-----------0--2-----40|
--0--2--3-----------------|-----2--3----------------|--0--2--3-------------|


  E  E  E  E  E  E  Q       E  E  E  E  E  E  E  E     E  E  E  E  E  E  Q     
-------------------------|--------------------------|----------------------|
-----------------0-------|-----------------0--------|-----------------0----|
-----------0--------4----|-----------0--2-----4--0--|-----------0----------|
-----2--3----------------|--0--2--3-----------------|-----2--3-------------|


  E  E  E  E  E  E  E  E     E  E  E  E  E  E  Q       E  E  E  E  E  E  E  E   
--------------------------|-------------------------|----------------------|
-----------------0--------|-----------------0-------|-----------------0----|
-----------0--2-----4--0--|-----------0--------4----|-----------0--2-----40|
--0--2--3-----------------|-----2--3----------------|--0--2--3-------------|


  E  E  E  E  E  E  Q       E  E  E  E  E  E  E  E     E  E  E  E  E  E  Q     
-------------------------|--------------------------|-------------------------|
-----------------0-------|-----------------0--------|-----------------0-------|
-----------0--------4----|-----------0--2-----4--0--|-----------0--------4----|
-----2--3----------------|--0--2--3-----------------|-----2--3----------------|


  E  E  E  E  E  E  E  E     E  E  E  E  E  E  Q       E  E  E  E  E  E  E  E   
--------------------------|-------------------------|----------------------|
-----------------0--------|-----------------0-------|-----------------0----|
-----------0--2-----4--0--|-----------0--------4----|-----------0--2-----40|
--0--2--3-----------------|-----2--3----------------|--0--2--3-------------|


  E  E  E  E  E  E  E  E      E  E  E  E  E  E  E  E   
---------------------------|-----------------7--6-----|
-----------------0-----2S--|--L--4--5--7--9--------7--|
-----------0--------4------|--------------------------|
-----2--3------------------|--------------------------|


  E  E  E  E  E  E  E  E     Q    E  Q.     E  E     Q.     H        E   
--9--7--6-----------------|-----------------------|---------------------|
-----------9--7--6--------|-----------------------|---------------------|
--------------------9--7--|--L-------5------------|------------------7--|
--------------------------|--------------------8--|--L------------------|


  E  E  E  E  E  E  E  E     E  E  E  E  E  E  E  E   
-----------------7--6-----|--9--7--6--9--7--6--9--7--|
--------5--7--9--------7--|--------------------------|
--L--9--------------------|--------------------------|
--------------------------|--------------------------|


  E  E  E  E  E  E  E  E     W                   W                 
--6--9--7--6--7--6--------|-------------------|-------------------|
--------------------9--7--|--L----------------|--L----------------|
--------------------------|-------------------|-------------------|
--------------------------|-------------------|-------------------|


  E  E  E  E  E  E  E  E     E  E  E  E  E  E  E  E   
--------------------------|--------------------------|
--------------------------|--------------------------|
--0--0--0--0--0--0--0--0--|--0--0--0--0--0--0--0--0--|
--------------------------|--------------------------|


  E  E  E  E  E  E  E  E     E  E  E  E  E  E  E  E   
--------------------------|--------------------------|
--------------------------|--------------------------|
--0--0--0--0--0--0--0--0--|--0--0--0--0--0--0--0--0--|
--------------------------|--------------------------|


  E  E  E  E  E  E  E  E     E  E  E  E  E  E  E  E   
--------------------------|--------------------------|
--------------------------|--------------------------|
--0--0--0--0--0--0--0--0--|--0--0--0--0--0--0--0--0--|
--------------------------|--------------------------|


  E  E  E  E  E  E  E  E     E  E  E  E  E  E  Q       W                 
--------------------------|-------------------------|-------------------|
--------------------------|-------------------------|-------------------|
--0--0--0--0--0--0--0--0--|--0--0--0--0--0--0-------|-------------------|
--------------------------|-------------------------|-------------------|


                      |--3--|  |--3--|                            
  W                   E  E  E  E  E  E     E  Q    E  E  Q    E   
-------------------|--4--4--4--4--4--2--|------------------------|
-------------------|--------------------|------------------------|
-------------------|--------------------|--2-------2--2-------2--|
-------------------|--------------------|------------------------|


  E  Q    E  Q.     E     E  Q    E  E  Q    E     E  Q    E  Q.     E   
-------------4---------|------------------------|-------------4---------|
-----------------------|------------------------|-----------------------|
--2-------2---------2--|--2-------2--2-------2--|--2-------2---------2--|
-----------------------|------------------------|-----------------------|


  E  Q    E  E  Q    E     E  Q    E  Q.     E     E  Q    E  E  Q    E   
------------------------|-------------4---------|------------------------|
------------------------|-----------------------|------------------------|
--2-------2--2-------2--|--2-------2---------2--|--2-------2--2-------2--|
------------------------|-----------------------|------------------------|


  E  Q    E  Q.     E     E  E  E  E  E.  E.  E     E  E  E  E  E.  E.  E   
-------------4---------|--------------2----------|--------------0----------|
-----------------------|-----------2-------------|-----------0-------------|
--2-------2---------2--|--2-----2-------------2--|--0-----0-------------0--|
-----------------------|-----0-------------------|-------------------------|


  E  E  E  E  E.  E.  E     E  E  E  E  E  E  E  E     E  E  E  Q.     Q     
-------------------------|--------------------------|-----------2----------|
--------------3----------|--------------------------|-----2----------------|
-----------3-------------|-----------------0--1-----|--2-------------------|
--3-----3-------------3--|--0--1--2--3--4--------2--|----------------------|


  E  E  E  Q.     Q       E  E  E  Q.     E  E     W                 
-----------0-----------|------------------------|-------------------|
-----0-----------------|-----------3------------|-------------------|
--0--------------------|-----3---------------2--|--L----------------|
-----------------------|--3---------------------|-------------------|


  W                   W                   H        E  E   
-------------------|-------------------|-----------------|
-------------------|-------------------|-----------------|
--L----------------|-------------------|--------------7--|
-------------------|-------------------|-----------------|


  E  E  E  E  E  E  E  E     E  E  E  E  E  E  E  E     Q.     H        E   
-----------------7--6-----|--9--7--6-----------------|---------------------|
--------5--7--9--------7--|-----------9--7--6--------|------------------5--|
--L--9--------------------|--------------------9--7--|--L------9-----------|
--------------------------|--------------------------|---------------------|


  Q.     H        E     E  E  E  E  E  E  E  E     E  E  E  E  E  E  E  E   
---------------------|-----------------7--6-----|--9--7--6-----------------|
--L------7-----------|--------5--7--9--------7--|-----------9--7--6--------|
------------------7--|--L--9--------------------|--------------------9--7--|
---------------------|--------------------------|--------------------------|


  Q    E  Q.     E  E     W                   E  E  E  E  E  E  E  E   
-----------------------|-------------------|--------------------------|
-------9---------7-----|-------------------|-----------------0--------|
--L-------5------------|-------------------|-----------0--2-----4--0--|
--------------------8--|--L----------------|--0--2--3-----------------|


  E  E  E  E  E  E  Q       E  E  E  E  E  E  E  E     E  E  E  E  E  E  E.  S  
-------------------------|--------------------------|----------------------|
-----------------0-------|-----------------0--------|-----------------0----|
-----------0--------4----|-----------0--2-----4--0--|-----------0--------4-|
-----2--3----------------|--0--2--3-----------------|-----2--3-------------|


  E  E  E  E  E  E  E  E     E  E  E  E  E  E  Q       E  E  E  E  E  E  E  E   
--------------------------|-------------------------|----------------------|
-----------------0--------|-----------------0-------|-----------------0----|
-----------0--2-----4--0--|-----------0--------4----|-----------0--2-----40|
--0--2--3-----------------|-----2--3----------------|--0--2--3-------------|


  E  E  E  E  E  E  E  E      E  E  E  E  E  E  E  E   
---------------------------|-----------------7--6-----|
-----------------0-----2S--|--L--4--5--7--9--------7--|
-----------0--------4------|--------------------------|
-----2--3------------------|--------------------------|


  E  E  E  E  E  E  E  E     E  E  E  E  E  E  E  E     E  E  E  E  E  E  Q     
--9--7--6-----------------|--------------------------|---------------------|
-----------9--7--6--------|-----------------0--------|-----------------0---|
--------------------9--7--|-----------0--2-----4--0--|-----------0--------4|
--------------------------|--0--2--3-----------------|-----2--3------------|


  E  E  E  E  E  E  E  E     E  E  E  E  E  E  E.  S  
--------------------------|--------------------------|
-----------------0--------|-----------------0--------|
-----------0--2-----4--0--|-----------0--------4-----|
--0--2--3-----------------|-----2--3-----------------|


  E  E  E  E  E  E  E  E     E  E  E  E  E  E  Q       E  E  E  E  E  E  E  E   
--------------------------|-------------------------|----------------------|
-----------------0--------|-----------------0-------|-----------------0----|
-----------0--2-----4--0--|-----------0--------4----|-----------0--2-----40|
--0--2--3-----------------|-----2--3-----------------|


  E  E  E  E  E  E  E  E      E  E  E  E  E  E  E  E   
---------------------------|-----------------7--6-----|
-----------------0-----2S--|--L--4--5--7--9--------7--|
-----------0--------4------|--------------------------|
-----2--3------------------|--------------------------|


  E  E  E  E  E  E  E  E     Q    E  Q.     E  E     Q.     H        E   
--9--7--6-----------------|-----------------------|---------------------|
-----------9--7--6--------|-----------------------|---------------------|
--------------------9--7--|--L-------5------------|------------------7--|
--------------------------|--------------------8--|--L------------------|


  E  E  E  E  E  E  E  E     E  E  E  E  E  E  E  E   
-----------------7--6-----|--9--7--6--9--7--6--9--7--|
--------5--7--9--------7--|--------------------------|
--L--9--------------------|--------------------------|
--------------------------|--------------------------|


  E  E  E  E  E  E  E  E     W                   W                 
--6--9--7--6--7--6--------|-------------------|-------------------|
--------------------9--7--|--L----------------|--L----------------|
--------------------------|-------------------|-------------------|
--------------------------|-------------------|-------------------|


  E  E  E  E  E  E  E  E     E  E  E  E  E  E  E  E   
--------------------------|--------------------------|
--7--7--7--7--7--7--7--7--|--7--7--7--7--7--7--7--7--|
--------------------------|--------------------------|
--------------------------|--------------------------|


  E  E  E  E  E  E  E  E     E  E  E  E  E  E  E  E   
--------------------------|--------------------------|
--7--7--7--7--7--7--7--7--|--7--7--7--7--7--7--7--7--|
--------------------------|--------------------------|
--------------------------|--------------------------|


  E  E  E  E  E  E  E  E     E  E  E  E  E  E  E  E   
--------------------------|--------------------------|
--7--7--7--7--7--7--7--7--|--7--7--7--7--7-----------|
--------------------------|-----------------0--0--0--|
--------------------------|--------------------------|


  E  E  E  E  E  E  E  E     E  E  E  E  E  E  E  E   
--------------------------|--------------------------|
--------------------------|--------------------------|
--0--0--0--0--0--0--0--0--|--0--0--0--0--0--0--0--0--|
--------------------------|--------------------------|


  E  E  E  E  E  E  E  E     E  E  E  E  E  E  E  E   
--------------------------|--------------------------|
--------------------------|--------------------------|
--0--0--0--0--0--0--0--0--|--0--0--0--0--0--0--0--0--|
--------------------------|--------------------------|


  E  E  E  E  E  E  E  E     E  E  E  E  E  E  E  E   
--------------------------|--------------------------|
--------------------------|--------------------------|
--0--0--0--0--0--0--0--0--|--0--0--0--0--0--0--0--0--|
--------------------------|--------------------------|


  E  E  E  E  E  E  E  E     E  E  E  E  Q    Q       E  S S S S S S Q    Q     
--------------------------|------------------------|-----------------------|
--------------------------|------------------------|-----------------------|
--0--0--0--0--0--0--0--0--|--0--0--0--0--0----0----|--2--2-2-2-2-2-2-2----2|
--------------------------|------------------------|-----------------------|


  E  S S S S S S Q    Q       E  S S S S S S Q    Q     
---------------------------|---------------------------|
---------------------------|---------------------------|
--2--2-2-2-2-2-2-2----2----|--2--2-2-2-2-2-2-2----2----|
---------------------------|---------------------------|


  E  S S S S S S Q    Q       E  S S S S S S Q    Q     
---------------------------|---------------------------|
---------------------------|---------------------------|
--2--2-2-2-2-2-2-2----2----|--2--2-2-2-2-2-2-2----2----|
---------------------------|---------------------------|


  E  S S S S S S Q.     E     E  S S S S S S Q    Q     
-----------------4---------|---------------------------|
---------------------------|---------------------------|
--2--2-2-2-2-2-2--------2--|--2--2-2-2-2-2-2-2----2----|
---------------------------|---------------------------|


  E  S S S S S S Q    Q       E  S E  S E  E  S E  S E   
---------------------------|----------------------------|
---------------------------|----------------------------|
--2--2-2-2-2-2-2-2----2----|--2----2----2--2----2----2--|
---------------------------|----------------------------|


  E  S E  S E  E  S E  S E     E  S E  S E  E  S E  S E   
----------------------------|----------------------------|
----------------------------|----------------------------|
--2----2----2--2----2----2--|--2----2----2--2----2----2--|
----------------------------|----------------------------|


  E  S E  S E  E  S E  S E     E  S E  S Q.     Q       E  S E  S Q.     Q     
----------------------------|--2---------------------|--0------------------|
----------------------------|-------2----------------|-------0-------------|
--2----2----2--2----2----2--|------------2-----------|------------0---------
----------------------------|------------------------|---------------------|


  E  S E  S Q.     Q       W                   W                 
------------------------|-------------------|-------------------|
--3---------------------|-------------------|-------------------|
-------3----------------|--2----------------|--L----------------|
------------3-----------|-------------------|-------------------|


  H.           Q       W                   W                 
--------------------|-------------------|-------------------|
--------------------|-------------------|-------------------|
--L-----------------|-------------------|-------------------|
--------------------|-------------------|-------------------|


  W                   W                                      
-------------------|-------------------|-------------------||
-------------------|-------------------|-------------------||
-------------------|-------------------|-------------------||
-------------------|-------------------|-------------------||




Duration Legend
---------------
W - whole
H - half
Q - quarter
E - 8th
S - 16th
T - 32nd
X - 64th
. - note dotted
|-n-|  - n-tuplets


Tablature Legend
----------------
L - tied note
x - dead note
g - grace note
(n) - ghost note
> - accentuded note
NH - natural harmonic
AH - artificial harmonic
TH - tapped harmonic
SH - semi harmonic
PH - pitch harmonic
h - hammer on
p - pull off
b - bend
br - bendRelease
pb - preBend
pbr - preBendRelease
brb - bendReleaseBend
\n/ - tremolo bar dip
\n - tremolo bar dive
-/n - tremolo bar Release up
/n\ - tremolo bar inverted dip
/n - tremolo bar return
-\n - tremolo bar Release down
S - shift slide
s - legato slide
/ -  slide into from below or out of upwards
\ -  slide into from above or out of downwards
~ - vibrato
W - wide vibrato
tr - trill
TP - tremolo picking
T - tapping
S - slap
P - pop
< - fade in
^ - brush up
v - brush down
comments
We did not receive enough feedback on this tab! Please rate:
print report bad tab
1 2 3 4 5
1 comment total.
0 reply
jakub421 wrote on July 27 2010, 04:00 pm

Great tab, all of it sounds correct.

I want to post or [tab]
guest
You may want to rate the tab now too:
select rating
Please do not post tabs as comments. Select "correction" instead!