Oops, an error
Loading. Please wait.

Yours Is No Disgrace Bass Tab

by Yes
ver1
ver1

Whole song

Interactive

More versions @911Tabs.com
9,341 views 21 this week
1 commentread comment
1 2 3 4 5
excellent!
x 3
Autoscroll
+/-
esc
set tempo
stop
Hey! There's an official Ultimate Guitar app which is ideal
for learning songs when you're away from computer. Get the app
WARNING: You are trying to view
                                    content from Ultimate-Guitar.com
                                    in an unauthorized application,
                                    which is prohibited.

                                    Please use an official Ultimate
                                    Guitar Tabs application for iPhone,
                                    iPad or Android to access legitimate
                                    chords, guitar, bass, and drum tabs
                                    from Ultimate-Guitar.com database.

                                    Type "ultimate guitar tabs" in Apple
                                    App Store's or Android Market's
                                    search to find the application.
                              Yours is No Disgrace
                                      Yes
                                                      Transcribed by Justin Benz


    0:00                                                                        
G---|--------------||---------------------------|--------------------------|----
D---|--------------||*--------7--------------7--|-----7--------7--------7--|----
A---|-----------7--||*-----7--------7-----------|--------5-----------------|----
E---|--------------||---------------------------|--------------------------|----
                                                                                

                                                 2x                             
G---------------------------|--------------------||-----------------------------
D------7--------7-----7-----|-------------------*||--------7--------------7-----
A---------5-----------------|--7-------------7--*||-----7--------7--------------
E---------------------------|-----------7\-------||-----------------------------
                                                                                

                                                                                
G---|--------------------------|--------------------------|---------------------
D---|-----7--------7--------7--|-----7--------7-----7-----|---------------------
A---|--------5-----------------|--------5-----------------|--7------------------
E---|--------------------------|--------------------------|-----------7\---3----
                                                                                

                                                                                
G---|--------------------------|--------------------------|---------------------
D---|--------------------------|--------------------------|---------------------
A---|--------3-----2--------3--|-----3-----0--3--------3--|-----3-----0--3------
E---|-----3--------------------|--------1-----------------|--------1------------
                                                                                

                                                                                
G------------|--------------------|--------------------------|------------------
D------------|--------------------|--------------------------|------------------
A------3-----|--2-----------------|--------5-----4--------5--|-----5-----2------
E------------|-----------3-----5--|-----5--------------------|--------3---------
                                                                                

                                                             0:40               
G---------------|--------------------------|-----------------|------------------
D---------------|--------------------------|-----------------|------------------
A---5--------5--|-----5-----2--5-----5-----|--4--------------|------------------
E---------------|--------3-----------------|--------------5--|--6--6-----6------
                                                                                

                                                                                
G---------------------|--------------------------------|------------------------
D---------------------|--------------------------------|------------------------
A---------------------|--------------------------------|------------------------
E------6--6--3--4--5--|--6--6-----6-----6-----3--4--5--|--6--6-----6-----6------
                                                                                

                                                                                
G---------------|--------------------------------|------------------------------
D---------------|--------------------------------|------------------------------
A---------------|--------------------------------|------------------------------
E------3--4--5--|--6--6-----6-----6--6--3--4--5--|--6--6-----6-----6-----4------
                                                                                

                                                                                
G------|--------------------------------|--------------------------|------------
D------|--------------------------------|--------------------------|------------
A------|--------------------------------|--------------------------|------------
E---5--|--6--6-----6-----6-----3--4--5--|--6--6-----6-----6-----6--|--6--6------
                                                                                

                                                                                
G---------------------------------------------|---------------------------------
D---------------------------------------------|-----------8-----8--8------------
A---------5--5--5--5--6--6--6--6--7--7--8--8--|-----------------------6--6------
E---6--6--------------------------------------|--6--6---------------------------
                                                                                

                                                                                
G---------|---------------------------------|-----------------------------------
D---------|-----------8-----8--6h8p6--------|-----------8-----8--6h8p6----------
A---8-----|---------------------------8-----|---------------------------8-------
E---------|--6--6---------------------------|--6--6-----------------------------
                                                                                

                                                                                
G---|-------------------------------|-----------------------------|-------------
D---|-----------8-----8-------------|-----------------------------|-------------
A---|--------------------5--6-------|-----------------------------|-------------
E---|--6--6--------------------6\---|--1--1-----1-----1-----1--1--|--1--1-------
                                                                                

                                                                                
G---------------------|-----------------------------|---------------------------
D---------------------|-----------------------------|---------------------------
A---------------------|-----------------------------|---------------------------
E---1-----1-----1--1--|--1--1-----1-----1-----1--1--|--1-----1--1--3-----3------
                                                                                

                                                                                
G------------------------------|--------------------------------|---------------
D------------------------------|--------------------------------|---------------
A------------------------------|--------------------------------|---------------
E---3--4-----4--4--5-----5--5--|--6--6-----6-----6--6--3--4--5--|--6--6---------
                                                                                

               1:11                                                             
G--------------|--------------------(7)h9--9--|-----------------------9---------
D--------------|-----------9-----9------------|-----------9-----9--9-----9------
A---5---/8--8--|--7-----7---------------------|--7-----7------------------------
E--------------|------------------------------|---------------------------------
                                                                                

                                                                                
G---|--------------------(7)h9--9--|--------------------------|--------9--7-----
D---|-----------9-----9------------|--9-----9-----------9--9--|-----------------
A---|--7-----7---------------------|-----------7-----7--------|--7--------------
E---|------------------------------|--------------------------|-----------------
                                                                                

                                                                     1:29       
G---h9p7-----|-----------------|-----------------|-------------------|----------
D---------9--|--9--------------|-----------------|-------------------|----------
A------------|-----------------|--5--------------|--(5)--------------|--5-------
E------------|-----------------|-----------------|-------------------|----------
                                                                                

                                                                                
G------------|-------------------|-------------------|-------------------|------
D------------|-------------------|-------------------|-------------------|------
A------------|--(5)--------------|--(5)--------------|--(5)--------------|------
E------------|-------------------|-------------------|-------------------|------
                                                                                

                                                                                
G------------------|-------------------|-----------------|----------------------
D------------------|-------------------|-----------------|----------------------
A------------------|-------------------|-----------------|----------------------
E---1--------------|--(1)--------------|--3--------------|--(3)-----------------
                                                                                

                      1:59                                                      
G---|-----------------|--------------------------|------------------------------
D---|-----------------|--------------7-----6-----|--7-----7-----7-----4--7------
A---|-----------------|--7--7--7-----------------|-----------------5------------
E---|--5--------------|--------------------------|------------------------------
                                                                                

                                                                                
G---|--------------------------|-----------------------------|------------------
D---|--7-----7-----7-----4--7--|--7-----6--------------------|------------------
A---|-----------------5--------|--------------7--------------|--7--7--7---------
E---|--------------------------|--------------------7--7--5--|------------------
                                                                                

                                                                                
G---------------|--------------------------|--------------------------|---------
D---7-----6-----|--7-----7-----7-----4--7--|--7-----7-----7-----4--7--|--7------
A---------------|-----------------5--------|-----------------5--------|---------
E---------------|--------------------------|--------------------------|---------
                                                                                

                                                                                
G---------------------------|--------------------------|------------------------
D------6--------------------|--------------7-----6-----|--7-----7-----7---------
A------------7--------------|--------------------------|-----------------5------
E------------------7--7--0--|--0--0--0-----------------|------------------------
                                                                                

                                                                                
G---------|--------------------------|-----------------------------|------------
D---4--7--|--7-----7-----7-----4--7--|--7-----6--------------------|------------
A---------|-----------------5--------|--------------7--------------|------------
E---------|--------------------------|--------------------7--7--0--|--0--0------
                                                                                

                                                                                
G---------------------|--------------------------|------------------------------
D---------7-----6-----|--7-----7-----7-----4--7--|--7-----7-----7-----4--7------
A---------------------|-----------------5--------|-----------------5------------
E---0-----------------|--------------------------|------------------------------
                                                                                

                                                                                
G---|-----------------------------|--------------------------------|------------
D---|--7-----6--------------------|--------------------------------|------------
A---|--------------7--------------|--------------------------------|------------
E---|-----------------7--5--0--2--|--3--3-----3-----3--3--0--1--2--|--3--3------
                                                                                

                                                                                
G---------------------------|--------------------------------|------------------
D---------------------------|--------------------------------|------------------
A---------------------------|--------------------------------|------------------
E------3-----3-----0--1--2--|--3--3-----3-----3-----0--1--2--|--3--3-----3------
                                                                                

                                                                                
G------------------|--------------------------------|---------------------------
D------------------|--------------------------------|---------------------------
A------------------|--------------------------------|---------------------------
E------3-----3--3--|--5--5-----5-----5-----2--3--4--|--5--5-----5-----5--5------
                                                                                

                                                                                
G------------|--------------------------------|---------------------------------
D------------|--------------------------------|---------------------------------
A------------|--------------------------------|---------------------------------
E---2--3--4--|--5--5-----5-----5--5--2--3--4--|--5--5-----5-----5-----5--5------
                                                                                

    2:40                                                                 2x     
G---||---------------------------------|---------------------------------||-----
D---||*--------------------------------|--------------------------------*||-----
A---||*--------------------------------|--------------------------------*||-----
E---||---6--6-----6-----6-----3--4--5--|--6--6-----6-----6-----3--4--5---||-----
                                                                                

                                                                                
G---------------------------|---------------------------------------------------
D---------------------------|---------------------------------------------------
A---------------------------|--------------5--5--5--5--6--6--6--6--7--7--8------
E---6--6-----6-----6-----6--|--6--6--6--6---------------------------------------
                                                                                

                                                                                
G------|----------------------------|----------------------------------|--------
D------|-----------8-----8--8p6-----|-----------8-----(6)h8--6h8p6-----|--------
A------|-------------------------8--|-------------------------------8--|--------
E------|--6--6----------------------|--6--6----------------------------|--6-----
                                                                                

                                                                                
G----------------------------------|--------------------------------------------
D---------(6)h8-----8--8-----------|-----------8-----8--------------------------
A-------------------------6--6--8--|--------------------5--5--5--6--6-----7-----
E---6------------------------------|--6--6--6-----------------------------------
                                                                                

                                                                                
G---|--------------------------|--------------------------|-----------9---------
D---|--------------------------|--------------------------|---------------------
A---|--8-----8--8-----8--8--8--|--8-----8--8-----8--8--8--|--7-----7------------
E---|--------------------------|--------------------------|---------------------
                                                                                

                                                                                
G---9--9--|--9--x--9--x--9--x--9--x--9p7-----|--------------------(7)h9---------
D---------|-------------------------------9--|-----------9-----9----------------
A---------|----------------------------------|--7-----7-------------------------
E---------|----------------------------------|----------------------------------
                                                                                

                                                                                
G---|--(7)h9--7-----------------------|-----------9-----9--9--7-----|-----------
D---|---------------9-----------9--9--|--------------------------7--|--9--------
A---|------------------7-----7--------|--7-----7--------------------|-----------
E---|---------------------------------|-----------------------------|-----------
                                                                                

                3:16                                                            
G---------------|--------------------7--6--|--7-----------------|---------------
D---------------|--9-----9--7--9-----------|--------9-----6-----|--7-----9------
A---------------|--------------------------|--------------------|---------------
E---------------|--------------------------|--------------------|---------------
                                                                                

                                                                                
G------6-----|--7-----6-----------------|--------------------6-----|------------
D------------|--------------9-----7-----|--6-----------9-----------|--5---------
A------------|--------------------------|--------7-----------------|------------
E------------|--------------------------|--------------------------|------------
                                                                                

                                                                                
G---------4-----4-----4--5--|-----5--4-----------5-----|--7-----6---------------
D---7-----------------------|--------------7-----------|--------------9---------
A---------------------------|--------------------------|------------------------
E---------------------------|--------------------------|------------------------
                                                                                

                                                                                
G---------|--------------------6-----|--------------4-----4-----4--5--|---------
D---7-----|--6-----------9-----------|--5-----7-----------------------|---------
A---------|--------7-----------------|--------------------------------|---------
E---------|--------------------------|--------------------------------|---------
                                                                                

                                                                                
G---5--4-----------------|--------------------7--6--|--7-----------------|------
D------------7-----5-----|--9-----9--7--9-----------|--------9-----6-----|------
A------------------------|--------------------------|--------------------|------
E------------------------|--------------------------|--------------------|------
                                                                                

                                                                                
G---------------6-----|--7-----6-----------------|--------------------6---------
D---7-----9-----------|--------------9-----7-----|--6-----------9---------------
A---------------------|--------------------------|--------7---------------------
E---------------------|--------------------------|------------------------------
                                                                                

                                                                                
G---|--------------4-----4-----4--5--|-----5--4-----------5-----|--7-----6------
D---|--5-----7-----------------------|--------------7-----------|---------------
A---|--------------------------------|--------------------------|---------------
E---|--------------------------------|--------------------------|---------------
                                                                                

                                                                                
G------------------|--------------------6-----|--------------4-----|--5---------
D------9-----7-----|--6-----------9-----------|--5-----7-----------|------------
A------------------|--------7-----------------|--------------------|------------
E------------------|--------------------------|--------------------|------------
                                                                                

                                                                                
G---4-----------------|-----------------7--6--7--|--5-----4---------------------
D---------7-----5-----|--9-----9-----7-----------|--------------7-----5---------
A---------------------|--------------------------|------------------------------
E---------------------|--------------------------|------------------------------
                                                                                

                                                          4:04                  
G---|-----------------7--6--7--|--5-----4-----------------|---------------------
D---|--9-----9-----7-----------|-----------7-----5--------|---------------------
A---|--------------------------|--------------------7-----|--5-----------7------
E---|--------------------------|--------------------------|---------------------
                                                                                

                                                                                
G---||---------------------------|--------------------------|-------------------
D---||*--------7--------------7--|-----7--------7--------7--|-----7--------7----
A---||*-----7--------7-----------|--------5-----------------|--------5----------
E---||---------------------------|--------------------------|-------------------
                                                                                

                                                                                
G------------|--------------------||--------------------------|-----------------
D------7-----|-------------------*||--------7-----6--------7--|-----7-----4-----
A------------|--7-------------7--*||-----7--------------------|--------5--------
E------------|-----------7\-------||--------------------------|-----------------
                                                                                

                                                                                
G---------------|--------------------------|-------------------|----------------
D---7--------7--|-----7-----4--7-----7-----|--6----------------|--------7-------
A---------------|--------5-----------------|----------------7--|-----7----------
E---------------|--------------------------|-----------7\------|----------------
                                                                                

                                                                                
G---------------|--------------------------|--------------------------|---------
D---6--------7--|-----7-----4--7--------7--|-----7-----4--7-----7-----|---------
A---------------|--------5-----------------|--------5-----------------|--7------
E---------------|--------------------------|--------------------------|---------
                                                                                

                                                                                
G------------------|--------------------------------|---------------------------
D------------------|--------------------------------|---------------------------
A------------------|--------------------------------|---------------------------
E---0--0--0--1--2--|--3--3-----3-----3--3--0--1--2--|--3--3-----3-----3--3------
                                                                                

                                                                                
G------------|--------------------------------|---------------------------------
D------------|--------------------------------|---------------------------------
A------------|--------------------------------|---------------------------------
E---0--1--2--|--3--3-----3-----3-----0--1--2--|--3--3-----3-----3--3--2--3------
                                                                                

                                                                                
G------|--------------------------------|--------------------------------|------
D------|--------------------------------|--------------------------------|------
A------|--------------------------------|--------------------------------|------
E---4--|--5--5-----5-----5--5--2--3--4--|--5--5-----5-----5-----2--3--4--|------
                                                                                

                                                                                
G---------------------------------|---------------------------------------------
D---------------------------------|---------------------------------------------
A---------------------------------|---------------------------------------------
E---5--5-----5-----5-----2--3--4--|--5--5-----5-----5-----5---------------------
                                                                                

    4:46 Guitar Solo                          4:56                              
G---|--------------------|--------------------|-----------------|---------------
D---|--------------------|--------------------|-----------------|---------------
A---|--------------------|--------------------|-----------------|---------------
E---|--0--0--------------|--------------------|--0/12-----------|--0/12---------
                                                                                

                                                                                
G---------|-----------------|-----------------------|---------------------------
D---------|-----------------|-----------------------|---------------------------
A---------|-----------------|-----------------------|---------------------------
E---------|--0/12-----------|--0/12-----0/10--------|--10--8--10-----8--10------
                                                                                

                                                                                
G---------|---------------------|-----------------------------|-----------------
D---------|---------------------|-----------------------------|-----------------
A---------|---------------------|-----------------------------|-----------------
E---8-----|--0/10-----------10--|--10--8--10-----8--10--8-----|--0/10-----------
                                                                                

                                                                                
G------|-----------------------------|-----------------|------------------------
D------|-----------------------------|-----------------|------------------------
A------|-----------------------------|-----------------|------------------------
E------|--10--8--10-----8--10--8-----|--0/10-----------|--10--8--10-----8-------
                                                                                

              5:21                                                              
G-------------|--------------------------------------|--------------------------
D-------------|--------------------------------------|--------------------------
A-------------|--------------------------------------|--------------------------
E---10--8-----|--6--6--6--5-----5--5--5-----5--5--5--|--6--6--6--5-----5--5-----
                                                                                

                                                                                
G-----------------|--------------------------------------|-------------||-------
D-----------------|--------------------------------------|-------------||*------
A-----------------|--------------------5-----5-----------|--7--7--5\---||*------
E---5-----5--5--5/|--8-----8--6-----6-----------8-----8--|-------------||-------
                                                                                

                                                                                
G------------------|-----------------------------|-----------------|------------
D------------------|-----------------------------|-----------------|------------
A------------------|-----------------------------|-----------------|------------
E---0/10-----------|--10--8--10-----8--10--8-----|--0/10-----------|--10--8-----
                                                                                

                                                                                
G---------------------||--||---------------------------------------|------------
D--------------------*||--||*--------------------------------------|------------
A--------------------*||--||*--------------------------------------|------------
E---10-----8--10--8---||--||---6--6--6--5-----5--5--5-----5--5--5--|--6--6------
                                                                                

                                  5:54                                          
G----------------------------------||-----------------------------|--------7----
D---------------------------------*||--------------------8--7-----|-----7-------
A---------------------------------*||--5--5--8--7-----7-----------|-------------
E---6--5-----5--5--5-----5--5--5---||-----------------------------|-------------
                                                                                

                                                                                
G------------------|-----------------------------|--7---------------------------
D---8-----7--------|--------------------8--7-----|--------8-----7---------------
A------------8--7--|--5--5--8--7-----7-----------|-----------------8--8--7------
E------------------|-----------------------------|------------------------------
                                                                                

                                                                                
G---|-----------------------------|-----7--------------------|------------------
D---|--------------------8--7-----|-----------8-----7--------|------------------
A---|--5--5--8--7-----7-----------|-----------------------8--|--5---------------
E---|-----------------------------|--------------------------|--------1---------
                                                                                

                                                                                
G---------|-----------------------|-------------------------------|--7----------
D---------|-----------------------|-------------------8--7-----7--|--------7----
A---------|--------3--------3--4--|--5---/8--7-----7--------------|-------------
E---3-----|--5-----------5--------|-------------------------------|-------------
                                                                                

                                                                                
G------------------|--------------------------------|--5------------------------
D---7--7-----8-----|-----------------------8--7-----|--------8-----7------------
A---------------8--|--5-----5--8--7-----7-----------|-----------------8--7------
E------------------|--------------------------------|---------------------------
                                                                                

                                                                                
G---|------------------------|-----------7--------------|-----------------------
D---|------------------------|--8--7-----------8--7--8--|--8--8-----------8-----
A---|--5\---3--5---/8--7-----|--------------------------|-----------------------
E---|------------------------|--------------------------|-----------6-----------
                                                                                

                                 6:22                                           
G--------------------------------||------------------------------|--------------
D------------8-------------------||*-----------------------------|--------------
A---------------------1--3--1----||*-----------------------------|--------------
E------6-----------1-----------1/||---5--5--5--5-----5--5--5-----|-----5--5-----
                                                                                

                    2x                                                          
G-------------------||--------------------------|------------------------|------
D------------------*||--------------------------|------------------------|------
A------------------*||--------------------------|------------------------|------
E---5--6-----6------||--5--5--5--5-----5--5--5--|--5--5--5--5--5--5--5\1/|------
                                                                                

                                                                                
G---------------------------------------|--------------|------------------------
D---------------------------------------|--2-----------|------------------------
A---3-----3--3--3--1--------5-----3-----|--------5-----|--3-----3--3--3--1------
E---------------------------------------|--------------|------------------------
                                                                                

                                                                                
G---------------------------------------------|---------------------------------
D---------------------------------------------|---------------------------------
A------1--1--1--5-----5--5--5--3-----3--3--3--|/7-----7--7--7--5-----5--5--5----
E---------------------------------------------|---------------------------------
                                                                                

                                                                                
G---|-----------------------------------7-----7--7--7---------------------9-----
D---|/10-----10--10--10--8-----8--8--8-----------------10-----10--10--10--------
A---|---------------------------------------------------------------------------
E---|---------------------------------------------------------------------------
                                                                                

                                               6:57                             
G---\---|-----------------|--------------------|--7-----6-----------------|-----
D-------|-----------------|--------------------|--------------9-----7-----|-----
A-------|--0--------------|--5-----------------|--------------------------|-----
E-------|-----------------|--------------------|--------------------------|-----
                                                                                

                                                                                
G---------------------6-----|--------------4-----4--5--|-----5--4---------------
D---6-----------9-----------|--5-----7-----------------|--------------7---------
A---------7-----------------|--------------------------|------------------------
E---------------------------|--------------------------|------------------------
                                                                                

                                                                                
G---5-----|--7-----6-----------------|-----------------6-----|------------------
D---------|--------------9-----7-----|--6-----9--------------|--5-----7---------
A---------|--------------------------|-----7-----------------|------------------
E---------|--------------------------|-----------------------|------------------
                                                                                

                                                                                
G---4-----4--5--|-----5--4-----------------|--------------------7--6--7---------
D---------------|--------------7-----5-----|--9-----9--7--9---------------------
A---------------|--------------------------|------------------------------------
E---------------|--------------------------|------------------------------------
                                                                                

                                                                                
G---------|--------------------6-----|/7-----------------|--(5)h7--(5)h7--------
D---------|--------7-----9-----------|-------------------|----------------------
A---9--7--|--9-----------------------|----------5-----5--|----------------------
E---------|--------------------------|-------------------|----------------------
                                                                                

                                                                                
G---7-----------|--(5)h7--(5)h7-----(5)h7-----------|--(5)h7--(5)h7-----(5)-----
D---------------|-----------------------------------|---------------------------
A------5--------|--------------------------5-----5--|---------------------------
E---------------|-----------------------------------|---------------------------
                                                                                

                                                                                
G---h7--(5)h7--(5)h7--5h7--|-----------7-----7--|--(5)h7--(5)h7-----7-----------
D--------------------------|--------------------|-------------------------------
A--------------------------|--5-----5-----------|----------------------5--------
E--------------------------|--------------------|-------------------------------
                                                                                

                                                                                
G------|--(5)h7--(5)h7-----(5)h7--(5)h7--(5)h7-----7\|-----------------|--------
D------|---------------------------------------------|-----------------|--9-----
A---5--|---------------------------------------------|--3--------------|--------
E------|---------------------------------------------|-----------------|--------
                                                                                

                                                                                
G------------------------|--------------------------|---------------------------
D------9--7--9-----------|--------------------------|---------------------------
A------------------2--0--|--2-----5--4--5-----------|--------------2-----4------
E------------------------|--------------------2--0--|--2-----5------------------
                                                                                

       7:43                                                                     
G------|--------------------|--------------------|-----------------|------------
D------|--------------------|--------------------|-----------------|------------
A------|--5--------------5--|--7--------7--5-----|--------------2--|--3--2------
E------|-----------5--7-----|-----------------7--|--3--------5-----|------------
                                                                                

                                                                                
G------------------|--------------------|-----------------------|---------------
D------------------|--------------------|-----------------------|---------------
A------------2--3--|--5--------------5--|--7-----------7--5-----|---------------
E------5-----------|-----------5--7-----|--------------------7--|--3------------
                                                                                

                                                                                
G---------|-----------------------|-----------------------|---------------------
D---------|-----------------------|-----------------------|---------------------
A------2--|--3-----2--------------|--2--------0--5--4--5--|--3-----2------------
E---5-----|-----------5-----3-----|-----------------------|-----------5---------
                                                                                

                                                    8:07 2nd Guitar Solo        
G---------|-----------------------|-----------------|--------------------|------
D---------|-----------------------|-----------------|--------------------|------
A---------|--2--------0--5--4--5--|--3--------------|--------------------|------
E---3-----|-----------------------|-----------------|--0--0--------------|------
                                                                                

                                                                                
G---------------------------|--------------------------|------------------------
D---------------7-----6-----|--7-----7-----7-----4--7--|--7-----7-----7---------
A---7--7--7-----------------|-----------------5--------|-----------------5------
E---------------------------|--------------------------|------------------------
                                                                                

                                                                                
G---------|-----------------------------|--------------------------|------------
D---4--7--|--7-----6--------------------|--------------7-----6-----|--7---------
A---------|--------------7--------------|--7--7--7-----------------|------------
E---------|--------------------7--7--5--|--------------------------|------------
                                                                                

                                                                                
G---------------------|--------------------------|------------------------------
D---7-----7-----4--7--|--7-----7-----7-----4--7--|--7-----6---------------------
A------------5--------|-----------------5--------|--------------7---------------
E---------------------|--------------------------|--------------------7--7------
                                                                                

                                                                                
G------|--------------------------|--------------------------|------------------
D------|--------------7-----6-----|--7-----7-----7-----4--7--|--7-----7---------
A------|--------------------------|-----------------5--------|------------------
E---0--|--0--0--0-----------------|--------------------------|------------------
                                                                                

                                                                                
G---------------|-----------------------------|--------------------------|------
D---7-----4--7--|--7-----6--------------------|--------------7-----6-----|------
A------5--------|--------------7--------------|--------------------------|------
E---------------|--------------------7--7--0--|--0--0--0-----------------|------
                                                                                

                                                                                
G---------------------------|--------------------------|------------------------
D---7-----7-----7-----4--7--|--7-----7-----7-----4--7--|--7-----6---------------
A------------------5--------|-----------------5--------|--------------7---------
E---------------------------|--------------------------|-----------------7------
                                                                                

                                                                                
G------------|--------------------------------|---------------------------------
D------------|--------------------------------|---------------------------------
A------------|--------------------------------|---------------------------------
E---5--0--2--|--3--3-----3-----3-----0--1--2--|--3--3-----3-----3-----0--1------
                                                                                

                                                                                
G------|-----------------------------|--------------------------------|---------
D------|-----------------------------|--------------------------------|---------
A------|-----------------------------|--------------------------------|---------
E---2--|--3--3-----3-----3-----3--3--|--5--5-----5-----5-----2--3--4--|--5------
                                                                                

                                                                                
G------------------------------|--------------------------------|---------------
D------------------------------|--------------------------------|---------------
A------------------------------|--------------------------------|---------------
E---5-----5-----5--5--2--3--4--|--5--5-----5-----5--5--2--3--4--|--5--5---------
                                                                                

                                                                                
G------------------|--------------------------------|---------------------------
D------------------|--------------------------------|---------------------------
A------------------|--------------------------------|---------------------------
E---5-----5-----5--|--6--6-----6-----6-----3--4--5--|--6--6-----6-----6---------
                                                                                

                                                                                
G------------|--------------------------------|---------------------------------
D------------|--------------------------------|---------------------------------
A------------|--------------------------------|--------------5-----5--5---------
E---3--4--5--|--6--6-----6-----6-----3--4--5--|--6-----6--6---------------------
                                                                                

                                                                                
G---------------|--------------------------------|------------------------------
D---------------|--------------------------------|------------------------------
A---5--5--6--8--|--------------------------------|------------------------------
E---------------|--6--6-----6-----6-----3--4--5--|--6--6-----6-----6-----3------
                                                                                

                                                                                
G---------|--------------------------|------------------------------------------
D---------|--------------------------|------------------------------------------
A---------|--------------------------|--------------5--5--5--5--6--6--6--6------
E---4--5--|--6--6-----6-----6-----6--|--6--6--6--6------------------------------
                                                                                

                                                                                
G---------------|--------------------------------|------------------------------
D---------------|-----------8-----8--8-----------|-----------8--8--8--8--8------
A---7--7--8-----|-----------------------6--6--8--|------------------------------
E---------------|--6--6--------------------------|--6--6------------------------
                                                                                

                                                                                
G----------|----------------------------------|---------------------------------
D---p6-----|-----------(6)h8--(6)h8-----8--8--|--8--8-----(6)h8--(6)h8--6-------
A-------8--|----------------------------------|----------------------------8----
E----------|--6--6----------------------------|---------------------------------
                                                                                

                                                                                
G-------|-----------------------------|-----------------------------|-----------
D-------|-----------------------------|-----------------------------|-----------
A---\---|-----------------------------|-----------------------------|-----------
E-------|--1--1-----1-----1-----1--1--|--1--1-----1-----1-----1--1--|--1--1-----
                                                                                

                                                                                
G------------------------|--------------------------|---------------------------
D------------------------|--------------------------|-----------(6)h8--(6)------
A------------------------|--------------------------|---------------------------
E------1-----1-----1--1--|--1--1--3--3--4--4--5--5--|--6--6---------------------
                                                                                

                                               9:25                             
G-------------------|--------------------------|--------------------------------
D---h8--------------|--------------------------|--------------------------------
A----------5--6--7--|--8--8-----8--8--8--8--8--|--7-----7--7-----7--7-----------
E-------------------|--------------------------|-----------------------7\-------
                                                                                

    Tremolo pick while gradually sliding up                                     
G---|-------------------|------------------|-------------------|----------------
D---|-------------------|------------------|-------------------|----------------
A---|-------------------|------------------|-------------------|----------------
E---|--0/x/x/x/x/x/x/x--|--12--------------|--0/x/x/x/x/x/x/x--|--12-----0------
                                                                                

                                       ...and on into infinity...               
G------------------|-------------------||---------------------------------------
D------------------|-------------------||---------------------------------------
A------------------|-------------------||---------------------------------------
E---0-----0--0--0--|--0/x/x/x/x/x/x/x--||---------------------------------------
                                                                                



================================================================================
==                Created with a demo version of BUCKET O' TAB                ==
==                  tablature creation software for Windows                   ==
==                       http://www.his.com/~gse/bucket                       ==
================================================================================

comments
We did not receive enough feedback on this tab! Please rate:
print report bad tab
1 2 3 4 5
1 comment total.
0 reply
allmanbrosman73 wrote on April 10 2008, 07:44 pm

I LOVE YOU!!!!!!!!!!!!!!!!!!!!!!!!!!!!!!!!!!!!!!!!!!!!!!!!
please keep tabbing out yes songs

I want to post or [tab]
guest
You may want to rate the tab now too:
select rating
Please do not post tabs as comments. Select "correction" instead!