Oops, an error
Loading. Please wait.

Yours Is No Disgrace Bass Tab

by Yes
ver2
ver2

Whole song

Interactive

More versions @911Tabs.com
1,664 views 6 this week
no commentswrite comment
1 2 3 4 5
excellent!
x 1
add to favorites launch autoscroll
font size
0
reset
Autoscroll
+/-
esc
set tempo
stop
Contributor
WARNING: You are trying to view
                                    content from Ultimate-Guitar.com
                                    in an unauthorized application,
                                    which is prohibited.

                                    Please use an official Ultimate
                                    Guitar Tabs application for iPhone,
                                    iPad or Android to access legitimate
                                    chords, guitar, bass, and drum tabs
                                    from Ultimate-Guitar.com database.

                                    Type "ultimate guitar tabs" in Apple
                                    App Store's or Android Market's
                                    search to find the application.
Yes
Yours is No Disgrace
bass tab

  theme 1
|----------------|----------------|----------------|----------------|
|------7---------|7---7-----7-----|7---7-----7---7-|----------------|*
|7---7-----7-----|------5---------|------5---------|--7-------------|4
|----------------|----------------|----------------|----------7\----|

|----------------|----------------|----------------|----------------|
|----------------|----------------|----------------|----------------|
|------3---2-----|3---3---0-3-----|3---3---0-3---3-|--2-------------|
|3---3-----------|------1---------|------1---------|----------3-----|

|----------------|----------------|----------------|----------------|
|----------------|----------------|----------------|----------------|
|------5---4-----|5---5---2-5-----|5---5---2-5---5-|--4-----------0-|
|5---5-----------|------3---------|------3---------|----------------|

  0.40
|----------------|  |----------------|----------------|
|----------------|* |----------------|----0..1..2..3.-|
|1-1---1---1-1---|6 |1-1---1---1---1-|111-------------|
|-------------310|  |----------------|----------------|

  0.54
|------3---3-3---|------3---3-30--|------3---3-30--|----------------|
|-------------03-|--------------3-|--------------3-|--------001-1---|
|1-1-------------|1-1-------------|1-1-------------|1-1---1-------1-|
|----------------|----------------|----------------|----------------|

  1.01
|----------------|  |----------------|----------------|----------------|
|----------------|* |----------------|----------------|----------------|
|----------------|3 |----------------|----------------|------6---7-8-8-|
|1-1---1---1-101-|  |1--.3--.4--.5--.|6-6---6---66666-|6-6-------------|

  1.11
|------------9---|------------9---|------------9---|
|------9---9-----|------9--9----9-|------9---9-----|
|7---7-----------|7---7-----------|7---7-----------|
|----------------|----------------|----------------|

                 |----------------|------9---9-9---|--
                 |9---9-------9---|--------------9-|----
                 |------7---7-----|7---7-----------|------
                 |----------------|----------------|(12)----

|--------        |--------        |--------        |--------  
|(12)----        |--------        |--------        |--------  
|--------        |--------        |--------        |--------  
|--------        |1-------        |3-------        |5-------  

  verse     1.59
|----------------|----------------|----------------|----------------|
|------7---6---7-|--7---7---4-6-7-|--6---7---4-6-7-|--6-------------|x
|7-7-7-----------|--------5-------|--------5-------|------7---5-4-0-|3
|----------------|----------------|----------------|----------------|

|----------------|----------------|----------------|----------------|
|------7---6---7-|--7---7---4-6-7-|--6---7---4-6-7-|--6-------------|
|7-7-7-----------|--------5-------|--------5-------|5-----7---------|
|----------------|----------------|----------------|--------5-7-0-2-|

|----------------|  |----------------|  |----------------|
|----------------|* |----------------|* |----------------|
|----------------|4 |----------------|3 |----------------|
|3-3---3---3-0123|  |5-5---5---5-2345|  |5-5---5---5-5-5-|

|----------------|  |----------------|----------------|
|----------------|x |----------------|----0..1..2..3.-|
|1-1---1---1-1---|6 |1-1---1---1---1-|111-------------|
|-------------310|  |----------------|----------------|

  2.53
|------3---3-30--|------3--3-030--|------3--3-030--|----3-----------|
|--------------3-|--------------30|--------------30|------00-11-2-3-|
|1---1-----------|1---1-----------|1-1-------------|1-1-------------|
|----------------|----------------|----------------|----------------|

|----------------|----------------|
|3---3-3---3-3---|5^--------------|
|----------------|------8-----8---|
|----------------|----------------|

  3.04
|------9---9-9---|9-99-99-99-997--|------------9---|
|----9-----------|--------------97|------9---9-----|
|7---------------|----------------|7-7-7-----------|
|----------------|----------------|----------------|

|9-99------------|------9---9-----|----
|-----99----9----|----9---------9-|---
|--------7-7--7--|7---------------|--
|--------------0-|----------------|-


  bridge       5:4                          4:4
  3.16         -3-                          -3-
|---------7-67--|------------6--|7--6--------|---------6--|------4--4-5|--54-----5--|
|9--9-79--------|9--6--7--9-----|------9--7--|6-----9-----|5--7--------|------7-----|
|---------------|---------------|------------|---7--------|------------|------------|
|---------------|---------------|------------|------------|------------|------------|

                                |7--6--------|---------6--|------4--4-5|--54--------|
                                |------9--7--|6-----9-----|5--7--------|------7\-5--|
                                |------------|---7--------|------------|------------|
                                |------------|------------|------------|------------|

|---------7-67--|------------6--|7--6--------|---------6--|------4--4-5|--54-----5--|
|9--9-79--------|9--6--7--9-----|------9--7--|6-----9-----|5--7--------|------7-----|
|---------------|---------------|------------|---7--------|------------|------------|
|---------------|---------------|------------|------------|------------|------------|

                                |7--6--------|---------6--|------4--5--|4--------|
                                |------9--7--|6-----9-----|5--7--------|---7--5--| 3:4
                                |------------|---7--------|------------|---------| -3-
                                |------------|------------|------------|---------|

                                |------7-67--|6-----------|------7-67--|
                                |9--9-7------|---9--7--6--|9--9-7------|
                                |------------|------------|------------|
                                |------------|------------|------------|

                                             |6---------------|------|
                                             |----9-7---5-----|------|
                                        4:4  |------------7---|5-----|  3:8
                                             |----------------|------|
          theme 2
  4.05  |----------------|----------------|----------------|----------------|
        |------7---------|7---7-----7-----|7---7-----7---7-|----------------|*
        |7---7-----7-----|------5---------|------5---------|--7-------------|2
        |----------------|----------------|----------------|----------7\----|

  4.19  |----------------|----------------|----------------|----------------|
        |------7---6-----|7---7---4-7-----|7---7---4-7---7-|--6-------------|
        |7---7-----------|------5---------|------5---------|----------------|
        |----------------|----------------|----------------|----------7\----|

        |----------------|----------------|----------------|----------------|
        |------7---6-----|7---7---4-7-----|7---7---4-7---7-|--6-------------|
        |7---7-----------|------5---------|------5---------|----7-----------|
        |----------------|----------------|----------------|------0-0-0-1-2-|
  4.32
|----------------|  |----------------| |----------------|----------------
|----------------|* |----------------|*|----------------|------------
|----------------|4 |----------------|3|----------------|--------
|3-3---3---3-0123|  |5-5---5---5-2345| |5-5---5---5---5-|0-0-


  4.56  solo
|----------------|----------------|  |------------||----------------|----------------|
|----------------|----------------|* |------------||----------------|----------------|*
|----------------|----------------|3 |------------||----------------|----------------|4
|1-/-/-/-12------|----------------|  |1-/-/-/-12--||1-/-/-/-10------|108-10--8-108---|

  5.21
|------------------------|------------------------|------------|------------|--------|
|------------------------|------------------------|------------|------------|--------|
|------------------------|------------------------|------------|5-5-.-------|7-7-5\--|
|6-6-4-5---0-4-5---0-5-5-|6-6-6-5---0-4-5---0-5-6-|8-8-.-6-6-.-|------8-8-.-|--------|

  5.30
|----------------|----------------|  |------------------------|
|----------------|----------------|* |------------------------|*
|----------------|----------------|4 |------------------------|4
|1-/-/-/-10------|108-10--8-108---|  |6-5-.-5---0-4-5---0-4-.-|

  5.54
|----------------|----7-----------|----------------|--7-------------|
|------------8-7-|--7---8---7-----|------------8-7-|------8---7--^--|
|5-5-8-7^--7-----|------------8-7-|5---8-7^--7-----|------------877-|
|----------------|----------------|----------------|----------------|

|----------------|--7-------------|----------------|----------------|
|------------8-7-|------8---7-----|----------------|----------------|
|5--58-7^--7-----|--------------8-|5---------------|------3-----3-4-|
|----------------|----------------|------1-----3---|--5-------5-----|

|----------------|----7-----------|----------------|--7-------------|
|------------8-7-|--7----77^------|------------8-7-|------8---7-----|
|5-/-8-7---77----|------------8-7-|5--58-7---7-----|------------8-7-|
|----------------|----------------|----------------|----------------|

|----------------|------7---------|----------------|----------------|
|----------------|8-7-------8-7-8-|8-8-------8-----|--8---------8-8-|
|5--\3-5---8-7---|----------------|----------------|----------------|
|----------------|----------------|------6-------6-|------6---6-----|

  6.21  jazz solo
|----------------|----------------|  |----------------|----------------|
|7-7---7---7---7-|----7---8---8^--|* |7-7---7---7-----|7-7-7-7-7-7-7---|
|----0-------0---|--0---0---------|3 |----0-------0---|--------------0-|
|----------------|----------------|  |----------------|----------------|
    6.35                6:8   4:8
|------------|------------|--------|
|------------|------------|--------|
|------------|5-5-5-------|7---5---|
|8-8-8-6-----|------8-----|--------|

|------------|------------|------------|------------|------------|------
|------------|------------|------------|10.-.-8-.-.-|12.-.-10.-.-|14\---
|------------|5-.-.-------|7-.-.-5-.-.-|------------|------------|----0-... 
|8-.-.-6-.-.-|------8-.-.-|------------|------------|------------|------

  bridge 2   6.56
|--------||7--6--4-----|------4--6--|------4--4-5|--54-----5--|
|0-------||---------7--|6-----------|5--7--------|------7-----| 4:4
|--------||------------|---7--------|------------|------------| -3-
|--------||------------|------------|------------|------------|
                                                                  
|7--6--------|---------6--|------4--4-5|--54--------|
|------9--7--|6--9--------|5--7--------|------7--5--|
|------------|--7---------|------------|------------|
|------------|------------|------------|------------|

                                       |---------7-67--|---------------|
                                       |9--9-79--------|------7--9--11-| 5:4
                                       |---------------|9-79-----------| -3-
                                       |---------------|---------------|
  7.19               
|------------|------------|------------|------------|
|12----------|T-T--T------|T-T--T------|T-T--TT-T--T|
|------------|------------|------------|------------|
|------10---X|------X-----|------X-----|---------X--|

|------------|------------|------------|
|------T-----|T-T--T------|T-T--TT-T--T|
|------------|------------|------------|
|X----X------|------X----X|---------X--|

             |------------|---------------|------------|---------|
             |------------|9--9-79--------|------------|---------|
             |------------|---------------|5-45--------|0--2--4--|
             |8-----------|---------7-57--|------2-02--|---------|

  7.43
|------------------------|------------------------|
|-----------02-2--2--20--|------5-----------------|  8:4
|5-------02-------------2|--------02-03-2--02-03-3|  -3-
|------------------------|3-----------------------|

|------------------------|------------------------|------------------------|
|0----------02--------20-|------------------------|------------------------|
|--------02-------------2|--------02-23--2-0----02|-----05-45--3--2-0--0--2|
|------------------------|3-------------------3---|---------------------3--|

                         |------------------------|----------
                         |------------------------|--------
                         |-----45-45-.3-----------|------
  8.13                   |------------------------|00--
  end verse     4:4
|----------------|----------------|----------------|----------------|
|------7---6---7-|--7---7---4-6-7-|--6---7---4-6-7-|--6-------------|x
|7-7-7-----------|--------5-------|--------5-------|------7---5-4-0-|3
|----------------|----------------|----------------|----------------|

|----------------|----------------|----------------|----------------|
|------7---6---7-|--7---7---4-6-7-|--6---7---4-6-7-|--6-------------|
|7-7-7-----------|--------5-------|--------5-------|------7---------|
|----------------|----------------|----------------|--------5-7-0-2-|

|----------------|  |----------------|  |----------------|
|----------------|* |----------------|* |----------------|
|----------------|4 |----------------|3 |----------------|
|3-3---3---3-0123|  |5-5---5---5-2345|  |5-5---5---5-5-5-|

||----------------|  |----------------||
||----------------|* |----0..1..2..3.-||*
||1-1---1---1-1---|3 |111-------------||*
||-------------310|  |----------------||

  9.08
|------3---3-30--|------3---3-30--|------3---3-303-|3-3---3---3-30--|
|--------------30|--------------30|----------------|--------------30|
|1---1-----------|1-1-------------|1-1-------------|----------------|
|----------------|----------------|----------------|----------------|

|----------------|----------------|----------------|----------------|
|----------------|----------------|----------------|----------------|
|----------------|----------------|----------------|----------------|
|1-1---1---1-1001|1-1---1---1-1001|1-1---1---1---1-|1-1-3-3-4-4-5-5-|

|----------------|----------------||----------------|----------------|
|----------------|----------------||------9---9-----|----------------|*
|----------------|10----9-----8---||7---7-------7---|7///------------|*
|6-6---6-6-6-3//-|----------------||----------------|----------------|




standard tuning (EADG)

| /  slide up
| \  slide down

| .   incidental note (usually open string)
| ^   pre-struck note (hammer-on, pull-off)
| =   rest

| X   10
| E   11
| T   12
| H   13
| F   14


display in fixed-width font
one space ("-") = 1/16 note

tabbed by
spaceyhippie
dudeman.net/jam

comments
We did not receive enough feedback on this tab! Please rate:
print report bad tab
1 2 3 4 5
I want to post or [tab]
guest
You may want to rate the tab now too:
select rating
Please do not post tabs as comments. Select "correction" instead!