Oops, an error
Loading. Please wait.

Our Lucid Dream Tab

992 views 1 this week
no commentswrite comment
1 2 3 4 5
please rate
Autoscroll
+/-
esc
set tempo
stop
Contributor
Difficulty
Hey! There's an official Ultimate Guitar app which is ideal
for learning songs when you're away from computer. Get the app
WARNING: You are trying to view
                                    content from Ultimate-Guitar.com
                                    in an unauthorized application,
                                    which is prohibited.

                                    Please use an official Ultimate
                                    Guitar Tabs application for iPhone,
                                    iPad or Android to access legitimate
                                    chords, guitar, bass, and drum tabs
                                    from Ultimate-Guitar.com database.

                                    Type "ultimate guitar tabs" in Apple
                                    App Store's or Android Market's
                                    search to find the application.
#----------------------------------PLEASE NOTE---------------------------------#
#This file is the author's own work and represents their interpretation of the #
#song. You may only use this file for private study, scholarship, or research. #
#------------------------------------------------------------------------------##

                                 OUR LUCID DREAM
                        As recorded by Yesterdays Rising
                  (From the 2004 EP WHEN WE SPEAK, WE BREATHE)

Words and Music by Yesterdays Rising
Arranged by Yesterdays Rising
Transcribed by Jonathan Rose

Gtr I (Db Ab Db Gb Bb Eb) - 'Dist. Left'
Gtr II (Db Ab Db Gb Bb Eb) - 'Dist. Right'
Gtr III (Db Ab Db Gb Bb Eb) - 'Clean Left'
Gtr IV (Db Ab Db Gb Bb Eb) - 'Lead'

 Intro
  Dancefight Q=163
  D5                                       E5 F5
 4/4
  Gtrs I, II
    PM--------|             PM--------|
  E S S S S S S E. E. E   E S S S S S S E. E. E
|-----------------------|-----------------------|
|-----------------------|-----------------------|
|-----------------------|-----------------------|
|-0-------------0--0--0-|-0-------------0--2--3-|
|-0-0-0-0-0-0-0-0--0--0-|-0-0-0-0-0-0-0-0--2--3-|
|-0-0-0-0-0-0-0-0--0--0-|-0-0-0-0-0-0-0-0--2--3-|


                                        G5 F5 E5
    PM--------|             PM--------|
  E S S S S S S E. E. E   E S S S S S S E. E. E
|-----------------------|-------------------------||
|-----------------------|-------------------------||
|-----------------------|-------------------------||
|-3-------------3--3--3-|-3-------------5--3--2---||
|-3-3-3-3-3-3-3-3--3--3-|-3-3-3-3-3-3-3-5--3--2---||
|-3-3-3-3-3-3-3-3--3--3-|-3-3-3-3-3-3-3-5--3--2---||


   Verse
    D5                                       E5 F5
      PM--------|             PM--------|
    E S S S S S S E. E. E   E S S S S S S E. E. E
||------------------------|-----------------------|
||o-----------------------|-----------------------|
||------------------------|-----------------------|
||--0-------------0--0--0-|-0-------------0--2--3-|
||o-0-0-0-0-0-0-0-0--0--0-|-0-0-0-0-0-0-0-0--2--3-|
||--0-0-0-0-0-0-0-0--0--0-|-0-0-0-0-0-0-0-0--2--3-|


                                        G5 F5 E5
    PM--------|             PM--------|
  E S S S S S S E. E. E   E S S S S S S E. E. E  3x
|-----------------------|------------------------||
|-----------------------|-----------------------o||
|-----------------------|------------------------||
|-3-------------3--3--3-|-3-------------5--3--2--||
|-3-3-3-3-3-3-3-3--3--3-|-3-3-3-3-3-3-3-5--3--2-o||
|-3-3-3-3-3-3-3-3--3--3-|-3-3-3-3-3-3-3-5--3--2--||


  D5                                       E5 F5
    PM--------|             PM--------|
  E S S S S S S E. E. E   E S S S S S S E. E. E
|-----------------------|-----------------------|
|-----------------------|-----------------------|
|-----------------------|-----------------------|
|-0-------------0--0--0-|-0-------------0--2--3-|
|-0-0-0-0-0-0-0-0--0--0-|-0-0-0-0-0-0-0-0--2--3-|
|-0-0-0-0-0-0-0-0--0--0-|-0-0-0-0-0-0-0-0--2--3-|


                                        N.C.
    PM--------|             PM--------|
  E S S S S S S E. E. E   E S S S S S S Q..   +S
|-----------------------|---------------3b5r==(3)-||
|-----------------------|-------------------------||
|-----------------------|-------------------------||
|-3-------------3--3--3-|-3-----------------------||
|-3-3-3-3-3-3-3-3--3--3-|-3-3-3-3-3-3-3-----------||
|-3-3-3-3-3-3-3-3--3--3-|-3-3-3-3-3-3-3-----------||


   Chorus
    D5                           E5 F5                            G5 F5 E5
    Gtr I
    E. E. E E. E. E   E. E. E E. E. E   E. E. E E. E. E   E. E. E E. E. E   3x
||-----5--3-1--0----|----5--3-1--0----|----5--3-1--0----|----5--3-1--0------||
||o-3-------------1-|-3-------------1-|---------------1-|---------------1--o||
||------------------|-----------------|-3---------------|-3-----------------||
||------------------|-----------------|-----------------|-------------------||
||o-----------------|-----------------|-----------------|------------------o||
||------------------|-----------------|-----------------|-------------------||
|
|   Gtr II
|   E. E. E E. E. E   E. E. E E. E. E   E. E. E E. E. E   E. E. E E. E. E   3x
||------------------|-----------------|-----------------|-------------------||
||o-----------------|-----------------|-----------------|------------------o||
||------------------|-----------------|-----------------|-------------------||
||--0--0--0-0--0--0-|-0--0--0-0--2--3-|-3--3--3-3--3--3-|-3--3--3-5--3--2---||
||o-0--0--0-0--0--0-|-0--0--0-0--2--3-|-3--3--3-3--3--3-|-3--3--3-5--3--2--o||
||--0--0--0-0--0--0-|-0--0--0-0--2--3-|-3--3--3-3--3--3-|-3--3--3-5--3--2---||


  D5                           E5 F5                            G5  F5  E5
  E. E. E E. E. E   E. E. E E. E. E   E. E. E E. E. E   E. E. E E.  +E. +E
|----5--3-1--0----|----5--3-1--0----|----5--3-1--0----|----5--3-3b5r(3)-(3)\-||
|-3-------------1-|-3-------------1-|---------------1-|----------------------||
|-----------------|-----------------|-3---------------|-3--------------------||
|-----------------|-----------------|-----------------|----------------------||
|-----------------|-----------------|-----------------|----------------------||
|-----------------|-----------------|-----------------|----------------------||
|
| E. E. E E. E. E   E. E. E E. E. E   E. E. E E. E. E   E. E. E E.   E.  E
|-----------------|-----------------|-----------------|----------------------||
|-----------------|-----------------|-----------------|----------------------||
|-----------------|-----------------|-----------------|----------------------||
|-0--0--0-0--0--0-|-0--0--0-0--2--3-|-3--3--3-3--3--3-|-3--3--3-5----3---2---||
|-0--0--0-0--0--0-|-0--0--0-0--2--3-|-3--3--3-3--3--3-|-3--3--3-5----3---2---||
|-0--0--0-0--0--0-|-0--0--0-0--2--3-|-3--3--3-3--3--3-|-3--3--3-5----3---2---||


 Verse
  D5                                       E5 F5
  Gtrs I, II
    PM--------|             PM--------|
  E S S S S S S E. E. E   E S S S S S S E. E. E
|-----------------------|-----------------------|
|-----------------------|-----------------------|
|-----------------------|-----------------------|
|-0-------------0--0--0-|-0-------------0--2--3-|
|-0-0-0-0-0-0-0-0--0--0-|-0-0-0-0-0-0-0-0--2--3-|
|-0-0-0-0-0-0-0-0--0--0-|-0-0-0-0-0-0-0-0--2--3-|


                                        G5 F5 E5
    PM--------|             PM--------|
  E S S S S S S E. E. E   E S S S S S S E. E. E
|-----------------------|------------------------|
|-----------------------|------------------------|
|-----------------------|------------------------|
|-3-------------3--3--3-|-3-------------5--3--2--|
|-3-3-3-3-3-3-3-3--3--3-|-3-3-3-3-3-3-3-5--3--2--|
|-3-3-3-3-3-3-3-3--3--3-|-3-3-3-3-3-3-3-5--3--2--|


  D5                                       E5 F5
  Gtr I
    PM--------|             PM--------|
  E S S S S S S E. E. E   E S S S S S S E. E. E
|-----------------------|-----------------------|
|-----------------------|-----------------------|
|-----------------------|-----------------------|
|-0-------------0--0--0-|-0-------------0--2--3-|
|-0-0-0-0-0-0-0-0--0--0-|-0-0-0-0-0-0-0-0--2--3-|
|-0-0-0-0-0-0-0-0--0--0-|-0-0-0-0-0-0-0-0--2--3-|
|
| Gtr II
|   PM--------|             PM--------|
| E S S S S S S E. E. E   E S S S S S S E. E. E
|-----------------------|-----------------------|
|-----------------------|-----------------------|
|-----------------------|-----------------------|
|-0-------------0--0--0-|-0-------------0--2--3-|
|-0-0-0-0-0-0-0-0--0--0-|-0-0-0-0-0-0-0-0--2--3-|
|-0-0-0-0-0-0-0-0--0--0-|-0-0-0-0-0-0-0-0--2--3-|


                                        G5  F5  E5
    PM--------|             PM--------|
  E S S S S S S E. E. E   E S S S S S S E.  +E. +E
|-----------------------|---------------3b5r(3)-(3)\--|
|-----------------------|-----------------------------|
|-----------------------|-----------------------------|
|-3-------------3--3--3-|-3---------------------------|
|-3-3-3-3-3-3-3-3--3--3-|-3-3-3-3-3-3-3---------------|
|-3-3-3-3-3-3-3-3--3--3-|-3-3-3-3-3-3-3---------------|
|
|   PM--------|             PM--------|
| E S S S S S S E. E. E   E S S S S S S E.   E.  E
|-----------------------|-----------------------------|
|-----------------------|-----------------------------|
|-----------------------|-----------------------------|
|-3-------------3--3--3-|-3-------------5----3---2----|
|-3-3-3-3-3-3-3-3--3--3-|-3-3-3-3-3-3-3-5----3---2----|
|-3-3-3-3-3-3-3-3--3--3-|-3-3-3-3-3-3-3-5----3---2----|


  D5                                       E5 F5
  Gtrs I, II
    PM--------|             PM--------|
  E S S S S S S E. E. E   E S S S S S S E. E. E
|-----------------------|-----------------------|
|-----------------------|-----------------------|
|-----------------------|-----------------------|
|-0-------------0--0--0-|-0-------------0--2--3-|
|-0-0-0-0-0-0-0-0--0--0-|-0-0-0-0-0-0-0-0--2--3-|
|-0-0-0-0-0-0-0-0--0--0-|-0-0-0-0-0-0-0-0--2--3-|


                                        G5 F5 E5
    PM--------|             PM--------|
  E S S S S S S E. E. E   E S S S S S S E. E. E
|-----------------------|------------------------|
|-----------------------|------------------------|
|-----------------------|------------------------|
|-3-------------3--3--3-|-3-------------5--3--2--|
|-3-3-3-3-3-3-3-3--3--3-|-3-3-3-3-3-3-3-5--3--2--|
|-3-3-3-3-3-3-3-3--3--3-|-3-3-3-3-3-3-3-5--3--2--|


  D5                                       E5 F5
    PM--------|             PM--------|
  E S S S S S S E. E. E   E S S S S S S E. E. E
|-----------------------|-----------------------|
|-----------------------|-----------------------|
|-----------------------|-----------------------|
|-0-------------0--0--0-|-0-------------0--2--3-|
|-0-0-0-0-0-0-0-0--0--0-|-0-0-0-0-0-0-0-0--2--3-|
|-0-0-0-0-0-0-0-0--0--0-|-0-0-0-0-0-0-0-0--2--3-|


    PM--------|             PM--------|
  E S S S S S S E. E. E   E S S S S S S H
|-----------------------|--------------------||
|-----------------------|--------------------||
|-----------------------|--------------------||
|-3-------------3--3--3-|-3------------------||
|-3-3-3-3-3-3-3-3--3--3-|-3-3-3-3-3-3-3------||
|-3-3-3-3-3-3-3-3--3--3-|-3-3-3-3-3-3-3------||


   Chorus
    D5                              E5    F5
    Gtr I
    E. E. E E. S S S E   E. E. E E. S S S E
||-----5--3-1--0h1p0---|----5--3-1--0h1p0---|
||o-3----------------1-|-3----------------1-|
||---------------------|--------------------|
||---------------------|--------------------|
||o--------------------|--------------------|
||---------------------|--------------------|
|
|   Gtr II
|   E. E. E E. E.    E   E. E. E E. E.    E
||---------------------|--------------------|
||o--------------------|--------------------|
||---------------------|--------------------|
||--0--0--0-0--0-----0-|-0--0--0-0--2-----3-|
||o-0--0--0-0--0-----0-|-0--0--0-0--2-----3-|
||--0--0--0-0--0-----0-|-0--0--0-0--2-----3-|


                               G5 F5    E5
  E. E. E E. S S S E   E. E. E E. S S S E
|----5--3-1--0h1p0---|----5--3-1--0h1p0----|
|------------------1-|------------------1--|
|-3------------------|-3-------------------|
|--------------------|---------------------|
|--------------------|---------------------|
|--------------------|---------------------|
|
| E. E. E E. E.    E   E. E. E E. E.    E
|--------------------|---------------------|
|--------------------|---------------------|
|--------------------|---------------------|
|-3--3--3-3--3-----3-|-3--3--3-5--3-----2--|
|-3--3--3-3--3-----3-|-3--3--3-5--3-----2--|
|-3--3--3-3--3-----3-|-3--3--3-5--3-----2--|


  1.
  D5                           E5 F5                            G5 F5    E5
  E. E. E E. E. E   E. E. E E. E. E   E. E. E E. E. E   E. E. E E. S S S E
|----5--3-1--0----|----5--3-1--0----|----5--3-1--0----|----5--3-1--0h1p0----||
|-3-------------1-|-3-------------1-|---------------1-|------------------1-o||
|-----------------|-----------------|-3---------------|-3-------------------||
|-----------------|-----------------|-----------------|---------------------||
|-----------------|-----------------|-----------------|--------------------o||
|-----------------|-----------------|-----------------|---------------------||
|
| E. E. E E. E. E   E. E. E E. E. E   E. E. E E. E. E   E. E. E E. E.    E
|-----------------|-----------------|-----------------|---------------------||
|-----------------|-----------------|-----------------|--------------------o||
|-----------------|-----------------|-----------------|---------------------||
|-0--0--0-0--0--0-|-0--0--0-0--2--3-|-3--3--3-3--3--3-|-3--3--3-5--3-----2--||
|-0--0--0-0--0--0-|-0--0--0-0--2--3-|-3--3--3-3--3--3-|-3--3--3-5--3-----2-o||
|-0--0--0-0--0--0-|-0--0--0-0--2--3-|-3--3--3-3--3--3-|-3--3--3-5--3-----2--||


  2.
  D5                              E5    F5
  E. E. E E. S S S E   E. E. E E. S S S E
|----5--3-1--0h1p0---|----5--3-1--0h1p0---|
|-3----------------1-|-3----------------1-|
|--------------------|--------------------|
|--------------------|--------------------|
|--------------------|--------------------|
|--------------------|--------------------|
|
| E. E. E E. E.    E   E. E. E E. E.    E
|--------------------|--------------------|
|--------------------|--------------------|
|--------------------|--------------------|
|-0--0--0-0--0-----0-|-0--0--0-0--2-----3-|
|-0--0--0-0--0-----0-|-0--0--0-0--2-----3-|
|-0--0--0-0--0-----0-|-0--0--0-0--2-----3-|


                               G5      F5 E5
                                    ~~~
  E. E. E E. S S S E   E. E. E S   +Q.      +S
|----5--3-1--0h1p0---|----5--3-------------------||
|------------------1-|---------5b6-(5)------(5)\-||
|-3------------------|-3-------------------------||
|--------------------|---------------------------||
|--------------------|---------------------------||
|--------------------|---------------------------||
|
| E. E. E E. E.    E   E. E. E E.      E. E
|--------------------|---------------------------||
|--------------------|---------------------------||
|--------------------|---------------------------||
|-3--3--3-3--3-----3-|-3--3--3-5-------3--2------||
|-3--3--3-3--3-----3-|-3--3--3-5-------3--2------||
|-3--3--3-3--3-----3-|-3--3--3-5-------3--2------||


 Interlude
  D5
  Gtr III
  E E E E E E  E E   E E E E E E E E   E E E E E E E E   E E E E E E E E
|---------0--------|-----0-------0---|---------0-------|-----0-------0---|
|-----6-----6------|-6-----6---6---6-|-----6-----6-----|-6-----6---6---6-|
|---7---7--------7-|---7-----7-------|---7---7-------7-|---7-----7-------|
|-0------------0---|-----------------|-8-----------5---|-----------------|
|------------------|-----------------|-----------------|-----------------|
|------------------|-----------------|-----------------|-----------------|
|
| Gtrs I, II
| E E E E E Q.       W                 W                 W
|------------------|-----------------|-----------------|-----------------|
|------------------|-----------------|-----------------|-----------------|
|------------------|-----------------|-----------------|-----------------|
|-0-0-0-0-0--------|-----------------|-----------------|-----------------|
|-0-0-0-0-0--------|-----------------|-----------------|-----------------|
|-0-0-0-0-0--------|-----------------|-----------------|-----------------|


  D5
  E E E E E E E E   E E E E E E E E   E E E E E E E E   E E E E E E E E
|---------5-------|-----5-------5---|---------5-------|-----5-------5---|
|-----6-----6-----|-6-----6---6---6-|-----6-----6-----|-6-----6---6---6-|
|---7---7-------7-|---7-----7-------|---7---7-------7-|---7-----7-------|
|-0-----------0---|-----------------|-8-----------5---|-----------------|
|-----------------|-----------------|-----------------|-----------------|
|-----------------|-----------------|-----------------|-----------------|
|
| E E E E E E E E   W                 W                 W
|-----------------|-----------------|-----------------|-----------------|
|-----------------|-----------------|-----------------|-----------------|
|-----------------|-----------------|-----------------|-----------------|
|-0-0-0-0-0---0-0-|-----------------|-----------------|-----------------|
|-0-0-0-0-0---0-0-|-----------------|-----------------|-----------------|
|-0-0-0-0-0---0-0-|-----------------|-----------------|-----------------|


  D5
  E E E E E E  E E   E E E E E E E E   E E E E E E E E   E E E E E E E E
|---------5--------|-----5-------5---|---------5-------|-----5-------5---||
|-----6-----6------|-6-----6---6---6-|-----6-----6-----|-6-----6---6---6-||
|---7---7--------7-|---7-----7-------|---7---7-------7-|---7-----7-------||
|-0------------0---|-----------------|-8-----------5---|-----------------||
|------------------|-----------------|-----------------|-----------------||
|------------------|-----------------|-----------------|-----------------||
|
| E E E E E Q.       W                 W                 W
|------------------|-----------------|-----------------|-----------------||
|------------------|-----------------|-----------------|-----------------||
|------------------|-----------------|-----------------|-----------------||
|-0-0-0-0-0--------|-----------------|-----------------|-----------------||
|-0-0-0-0-0--------|-----------------|-----------------|-----------------||
|-0-0-0-0-0--------|-----------------|-----------------|-----------------||


 Bridge
  D5     (Dm)    D5     (Dmadd9)D5
 3/4                           2/4
  Gtr I
  Q.     E E E   Q.     E E E   H
|--------5-----|--------0-----|---------|
|----------6---|----------6---|---------|
|------------7-|------------7-|---------|
|--------------|--------------|---------|
|--------------|--------------|---------|
|--------------|--------------|---------|
|
| Gtr II
| E  E H         E  E H         E E E E
|--------------|--------------|---------|
|--------------|--------------|---------|
|--------------|--------------|---------|
|-0--0---------|-0--0---------|-0-0-0---|
|-0--0---------|-0--0---------|-0-0-0---|
|-0--0---------|-0--0---------|-0-0-0---|


  D5     (Dm)    D5     (Dmadd9)D5
 3/4                           2/4
  Q.     E E E   Q.     E E E   H
|--------5-----|--------0-----|-------------||
|----------6---|----------6---|-------------||
|------------7-|------------7-|-------------||
|--------------|--------------|-------------||
|--------------|--------------|-------------||
|--------------|--------------|-------------||
|
|                               PM|   PM|
| E  E H         E  E H         S S E S S E
|--------------|--------------|-------------||
|--------------|--------------|-------------||
|--------------|--------------|-------------||
|-0--0---------|-0--0---------|-------------||
|-0--0---------|-0--0---------|-0-0-0-0-0-0-||
|-0--0---------|-0--0---------|-0-0-0-0-0-0-||


   *Breakdown*
    D5
   4/4
    Gtr IV
    Q.    E E E Q       E E E   E   E E E   E
||--------5-----------|---0-----------0---------|
||o---------6---------|-----6-----------6-------|
||------------7-------|---------7-----------7---|
||--------------------|-------------------------|
||o-------------------|-------------------------|
||--------------------|-------------------------|
|
|   Gtrs I, II
|   PM-------------------------------------------
|   E. E. H       +E    E E S S S S E E S S S S
||--------------------|-------------------------|
||o-------------------|-------------------------|
||--------------------|-------------------------|
||--------------------|-------------------------|
||o-0--0--0-------(0)-|-0-0-0-0-0-0-0-0-0-0-0-0-|
||--0--0--0-------(0)-|-0-0-0-0-0-0-0-0-0-0-0-0-|


  Q.    E E E Q       E E E   E   E E E   E
|-------5-----------|---0-----------0----------||
|---------6---------|-----6-----------6-------o||
|-----------7-------|---------7-----------7----||
|-------------------|--------------------------||
|-------------------|-------------------------o||
|-------------------|--------------------------||
|
|-------------------------------------------|
| E. E. H       +E    E E S S S S E E S S S S
|-------------------|--------------------------||
|-------------------|-------------------------o||
|-------------------|--------------------------||
|-------------------|--------------------------||
|-0--0--0-------(0)-|-0-0-0-0-0-0-0-0-0-0-0-0-o||
|-0--0--0-------(0)-|-0-0-0-0-0-0-0-0-0-0-0-0--||


  D5
          |-3-|      |-3-|                |-3-|      |-3-|
  E  E    S S S Q  E S S S  E    +E  E    S S S Q  E S S S  E
|------------------------------|-------------------------------|
|-----------5h6--------5h6-----|------------5h6--------5h6-----|
|-7--7----7-----7--7-7------7--|-(7)-7----7-----7--7-7------7--|
|------------------------------|-------------------------------|
|------------------------------|-------------------------------|
|------------------------------|-------------------------------|
|
| PM------------------------------------------------------------
| E.   E.       H          +E     E.   E.       H          +E
|------------------------------|-------------------------------|
|------------------------------|-------------------------------|
|------------------------------|-------------------------------|
|------------------------------|-------------------------------|
|-0----0--------0----------(0)-|--0----0--------0----------(0)-|
|-0----0--------0----------(0)-|--0----0--------0----------(0)-|


  F5
          |-3-|      |-3-|                |-3-|      |-3-|
  E  E    S S S Q  E S S S  E    +E  E    S S S Q  E S S S  E
|------------------------------|----------------------------------|
|-----------5h6--------5h6-----|------------5h6--------5h6--------|
|-7--7----7-----7--7-7------7--|-(7)-7----7-----7--7-7------7-----|
|------------------------------|----------------------------------|
|------------------------------|----------------------------------|
|------------------------------|----------------------------------|
|
|----------------------------------------------------------|
| E.   E.       H          +E     E.   E.       H          +E
|------------------------------|----------------------------------|
|------------------------------|----------------------------------|
|------------------------------|----------------------------------|
|------------------------------|----------------------------------|
|-3----3--------3----------(3)-|--3----3--------3----------(3)----|
|-3----3--------3----------(3)-|--3----3--------3----------(3)----|


  G5
          |-3-|      |-3-|                |-3-|      |-3-|
  E  E    S S S Q  E S S S  E    +E  E    S S S Q  E S S S  E
|------------------------------|-------------------------------|
|-----------5h6--------5h6-----|------------5h6--------5h6-----|
|-7--7----7-----7--7-7------7--|-(7)-7----7-----7--7-7------7--|
|------------------------------|-------------------------------|
|------------------------------|-------------------------------|
|------------------------------|-------------------------------|
|
| PM------------------------------------------------------------
| E.   E.       H          +E     E.   E.       H          +E
|------------------------------|-------------------------------|
|------------------------------|-------------------------------|
|------------------------------|-------------------------------|
|------------------------------|-------------------------------|
|-5----5--------5----------(5)-|--5----5--------5----------(5)-|
|-5----5--------5----------(5)-|--5----5--------5----------(5)-|


  Bb5
  Q     E E E E E  E    E  E    E E E E E  E
|---------8-----8-----|----8--------8------8---||
|-------6-----6-------|-6---------6-----6------||
|-7-------------------|------------------------||
|---------------------|------------------------||
|---------------------|------------------------||
|---------------------|------------------------||
|
|-----------------|
| E. E.   H       +E    E.   E.   H       +E
|---------------------|------------------------||
|---------------------|------------------------||
|---------------------|------------------------||
|---------------------|-8----8----8-------(8)--||
|-8--8----8-------(8)-|-8----8----8-------(8)--||
|-8--8----8-------(8)-|-8----8----8-------(8)--||


 Outro
  D5
  Q.     Q.     Q     +E  Q.     Q   Q
|-------------------|--------------------|
|--------5------6---|-(6)--------5---6---|
|-7-----------------|-----7--------------|
|-------------------|--------------------|
|-------------------|--------------------|
|-------------------|--------------------|
|
| E  E E E  E E E E    E  E  E E E E E E
|-------------------|--------------------|
|-------------------|--------------------|
|-------------------|--------------------|
|-0--0-0-0--0-0-0-0-|--0--0--0-0-0-0-0-0-|
|-0--0-0-0--0-0-0-0-|--0--0--0-0-0-0-0-0-|
|-0--0-0-0--0-0-0-0-|--0--0--0-0-0-0-0-0-|


  F5
  Q.     Q.     Q     +E  Q.     Q   Q
|-5-----------------|--------------------|
|--------5------6---|-(6)--------5---6---|
|-------------------|-----7--------------|
|-------------------|--------------------|
|-------------------|--------------------|
|-------------------|--------------------|
|
| E  E E E  E E E E    E  E  E E E E E E
|-------------------|--------------------|
|-------------------|--------------------|
|-------------------|--------------------|
|-3--3-3-3--3-3-3-3-|--3--3--3-3-3-3-3-3-|
|-3--3-3-3--3-3-3-3-|--3--3--3-3-3-3-3-3-|
|-3--3-3-3--3-3-3-3-|--3--3--3-3-3-3-3-3-|


  G5                                       Bb5
  Q.     Q.     Q     +E  Q.     Q   Q     E E E E E E E E   E E E E E E E E
|-5-----------------|--------------------|-8-----8-----8---|---8-----8-------|
|--------5------6---|-(6)--------5-------|---6-----6-----6-|-----6-----6---6-|
|-------------------|-----7----------7---|-----7-----7-----|-7-----7-----7---|
|-------------------|--------------------|-----------------|-----------------|
|-------------------|--------------------|-----------------|-----------------|
|-------------------|--------------------|-----------------|-----------------|
|
| E  E E E  E E E E    E  E  E E E E E E   E E E E E E E E   E E E E E E E E
|-------------------|--------------------|-----------------|-----------------|
|-------------------|--------------------|-----------------|-----------------|
|-------------------|--------------------|-----------------|-----------------|
|-5--5-5-5--5-5-5-5-|--5--5--5-5-5-5-5-5-|-8-8-8-8-8-8-8-8-|-8-8-8-8-8-8-8-8-|
|-5--5-5-5--5-5-5-5-|--5--5--5-5-5-5-5-5-|-8-8-8-8-8-8-8-8-|-8-8-8-8-8-8-8-8-|
|-5--5-5-5--5-5-5-5-|--5--5--5-5-5-5-5-5-|-8-8-8-8-8-8-8-8-|-8-8-8-8-8-8-8-8-|


    D5                                    F5
    Q.   Q.     Q    +E  Q.     Q   Q     Q.   Q.     Q    +E  Q.     Q   Q
||-----------------|--------------------|-5--------------|---------------------|
||o------5------6--|-(6)--------5---6---|------5------6--|-(6)--------5---6----|
||--7--------------|-----7--------------|----------------|-----7---------------|
||-----------------|--------------------|----------------|---------------------|
||o----------------|--------------------|----------------|---------------------|
||-----------------|--------------------|----------------|---------------------|
|
|   Q.   E  E E Q    +E  E  E E E E E E   Q.   E  E E Q    +E  E  E E E E E E
||-----------------|--------------------|----------------|---------------------|
||o----------------|--------------------|----------------|---------------------|
||-----------------|--------------------|----------------|---------------------|
||--0----0--0-0-0--|-(0)-0--0-0-0-0-0-0-|-3----3--3-3-3--|-(3)-3--3-3-3-3-3-3--|
||o-0----0--0-0-0--|-(0)-0--0-0-0-0-0-0-|-3----3--3-3-3--|-(3)-3--3-3-3-3-3-3--|
||--0----0--0-0-0--|-(0)-0--0-0-0-0-0-0-|-3----3--3-3-3--|-(3)-3--3-3-3-3-3-3--|


  G5
  Q.   Q.     Q    +E  Q.     Q   Q
|-5--------------|--------------------|
|------5------6--|-(6)--------5-------|
|----------------|-----7----------7---|
|----------------|--------------------|
|----------------|--------------------|
|----------------|--------------------|
|
| Q.   E  E E Q    +E  E  E E E E E E
|----------------|--------------------|
|----------------|--------------------|
|----------------|--------------------|
|-5----5--5-5-5--|-(5)-5--5-5-5-5-5-5-|
|-5----5--5-5-5--|-(5)-5--5-5-5-5-5-5-|
|-5----5--5-5-5--|-(5)-5--5-5-5-5-5-5-|


  Bb5
  E  E    E E E  E    E E   E  E    E E E E E E
|-8---------8---------8---|----8--------8---------||
|----6--------6---------6-|---------6-----6---6--o||
|---------7------7--------|-7---------7-----7-----||
|-------------------------|-----------------------||
|-------------------------|----------------------o||
|-------------------------|-----------------------||
|
| E.   E.   E E.   E.   E   E.   E.   E E E E E
|-------------------------|-----------------------||
|-------------------------|----------------------o||
|-------------------------|-----------------------||
|-8----8----8-8----8----8-|-8----8----8-8-8-8-8---||
|-8----8----8-8----8----8-|-8----8----8-8-8-8-8--o||
|-8----8----8-8----8----8-|-8----8----8-8-8-8-8---||


 Final Chord
  D5
  Gtrs I, II
  W          +W             +W           +W      5x
|----------|------------||-------------|---------||
|----------|------------||o------------|--------o||
|----------|------------||-------------|---------||
|-0--------|-(0)--------||--(0)--------|-(0)-----||
|-0--------|-(0)--------||o-(0)--------|-(0)----o||
|-0--------|-(0)--------||--(0)--------|-(0)-----||


Duration Legend
---------------
W - whole; H - half; Q - quarter; E - 8th; S - 16th; T - 32nd; X - 64th; a - acciaccatura
+ - note tied to previous; . - note dotted; .. - note double dotted
Uncapitalized letters represent notes that are staccato (1/2 duration)
Irregular groupings are notated above the duration line
Duration letters will always appear directly above the note/fret number it represents the
duration for.  Duration letters with no fret number below them represent rests.  Multi-
bar rests are notated in the form Wxn, where n is the number of bars to rest for.  Low
melody durations appear below the staff

Tablature Legend
----------------
 h   - hammer-on
 p   - pull-off
 b   - bend
 pb  - pre-bend
 r   - bend release (if no number after the r, then release immediately)
 /\  - slide into or out of (from/to "nowhere")
 s   - legato slide
 S   - shift slide
  - natural harmonic
[n]  - artificial harmonic
n(n) - tapped harmonic
 ~   - vibrato
 tr  - trill
 T   - tap
 TP  - trem. picking
 PM  - palm muting
\n/  - tremolo bar dip; n = amount to dip
 \n  - tremolo bar down
 n/  - tremolo bar up
/n\  - tremolo bar inverted dip
 =   - hold bend; also acts as connecting device for hammers/pulls
 <>  - volume swell (louder/softer)
 x   - on rhythm slash represents muted slash
 o   - on rhythm slash represents single note slash

Misc Legend
-----------
 |  - bar
||  - double bar
||o - repeat start
o|| - repeat end
*|  - double bar (ending)
 :  - bar (freetime)
 $  - Segno
 &  - Coda
Tempo markers -  = BPM(8/16=s8/s16), where s8 = swing 8ths, s16 = swing 16ths


***************************************************************************************
* Generated using Power Tab Editor by Brad Larsen - http://powertab.guitarnetwork.org *
***************************************************************************************
comments
We did not receive enough feedback on this tab! Please rate:
print report bad tab
1 2 3 4 5
I want to post or [tab]
guest
You may want to rate the tab now too:
select rating
Please do not post tabs as comments. Select "correction" instead!