Oops, an error
Loading. Please wait.

Kiss The Rain Tab

ver5
ver5
More versions @911Tabs.com
19,388 views 87 this week
1 commentread comment
1 2 3 4 5
excellent!
x 4
Autoscroll
+/-
esc
set tempo
stop
Contributor
Difficulty
intermediate
WARNING: You are trying to view
                                    content from Ultimate-Guitar.com
                                    in an unauthorized application,
                                    which is prohibited.

                                    Please use an official Ultimate
                                    Guitar Tabs application for iPhone,
                                    iPad or Android to access legitimate
                                    chords, guitar, bass, and drum tabs
                                    from Ultimate-Guitar.com database.

                                    Type "ultimate guitar tabs" in Apple
                                    App Store's or Android Market's
                                    search to find the application.


Title: Kiss The Rain (Guitar Version)

Composed by: Yiruma

Tabbed by: Ryan R. Gonzales

Location: Rosario, Batangas - Philippines

Tuning: e B G D A E (Standard Tuning)                                  



     H        E  E  E  E     Q    Q    Q    Q       H        E  E  E  E   
E||-----------------------|----------------------|-----------------------|
B||--------------------0--|--0----2----2---------|-----------------0--2--|
G||-----------------2-----|------------2---------|--2--------L--2--------|
D||--------------2--------|--2--------------2----|-----------------------|
A||-----------------------|--0-------------------|-----------------------|
E||-----------------------|----------------------|-----------------------|


                                                 ^                    
  Q    Q    Q    Q       H        E  E  E  E     Q    Q    Q    Q     
-------0----0---------|--------------0--2--4--|--4----5----5---------|
--0-------------------|--2--------L-----------|------------2---------|
------------1---------|-----------------------|--2--------------2----|
--2--------------2----|-----------------------|----------------------|
--4-------------------|-----------------------|----------------------|
----------------------|-----------------------|--2-------------------|


  Q.     E.  S  E  E.  S    E  Q    Q    Q    E     E  Q    Q    Q    E   
---------7---7h-9--7---5-|--L--4-----------------|----------5----4-------|
--2----------------------|---------------5-------|--------------------5--|
-------------------------|----------6---------6--|--L--------------------|
-------------------------|-----------------------|-----------------------|
-------------------------|-----------------------|-----7-----------------|
-------------------------|-----0-----------------|-----------------------|


  E  Q    Q    Q    E     E  H        E  E  E     Q    Q    Q    Q     
-----0----2----2-------|-----------------0-----|-------0----0---------|
--L------------3-------|-----3--------L-----3--|--3-------------------|
-----1--------------2--|--L--------------------|-----------------2----|
-----0-----------------|-----------------------|------------2---------|
-----------------------|-----------------------|--4-------------------|
-----------------------|-----------------------|----------------------|


                    ^                                                 
  H        E  E  E  E     E  Q    Q    Q    E     H        Q    Q     
-----------------------|-----------------------|-----------0---------|
--2--------L-----0--2--|--L--3----3------------|----------------3----|
--------------2--------|--------------------2--|--L------------------|
--------------------4--|--L------------4-------|---------------------|
--------------------2--|--L--------------------|---------------------|
-----------------------|-----------------------|---------------------|


  ^                                                                  
  Q    Q    Q    Q       Q    Q    Q    Q       Q    Q    Q    Q     
----------------------|----------------------|----------------------|
--2-------------------|--0--------------0----|--0----2----2---------|
--2---------2---------|--1---------2---------|------------2---------|
--4----4---------4----|-------2--------------|--2--------------2----|
----------------------|----------------------|--0-------------------|
--0-------------------|--0-------------------|----------------------|


  Q    Q    E  E  E  E     Q    Q    Q    Q       Q    Q    E  E  E  E   
------------------------|-------0----0---------|---------------0--2--4--|
------------------0--2--|--0-------------------|--2---------------------|
--2------------2--------|------------1---------|------------------------|
-------2----------------|--2--------------2----|-------2----------------|
------------0-----------|--4-------------------|------------------------|
------------------------|----------------------|------------0-----------|


  ^                                                                     
  Q    Q    Q    Q       Q    E.  S  E  E.  E.     Q    Q    Q    Q     
--4----5----5---------|-------7---7h-9--7---5---|--4-------------------|
------------2---------|--2----------------------|------------5---------|
--2--------------2----|-------------------------|-------6---------6----|
----------------------|-------------------------|----------------------|
----------------------|-------------------------|----------------------|
--2-------------------|-------------------------|--0-------------------|


  Q    Q    Q    Q       Q    Q    Q    Q       Q    Q    Q    E  E   
-------5----4---------|--0----2----2---------|-----------------0-----|
-----------------5----|------------3---------|--3-----------------3--|
----------------------|--1--------------2----|-------2---------------|
----------------------|--0-------------------|------------0----------|
--7-------------------|----------------------|-----------------------|
----------------------|----------------------|-----------------------|


                                                 ^                    
  Q    Q    Q    Q       Q    Q    Q    E  E     Q    Q    Q    Q     
-------0----0---------|-----------------------|----------------------|
--3-------------------|--2-----------------0--|--2----3----3---------|
-----------------2----|-------2---------2-----|----------------------|
------------2---------|------------2----------|--4--------------4----|
--4-------------------|-----------------------|--2-------------------|
----------------------|-----------------------|----------------------|


                                                ^                    
  Q    Q    Q    Q       Q    Q    Q    Q       Q    Q    Q    Q     
----------------------|----------------------|-----------------0----|
----------------------|------------0----3----|--2---------2---------|
--2---------1---------|--2-------------------|--2----2--------------|
-------2---------2----|-------2--------------|----------------------|
----------------------|--0-------------------|--0-------------------|
--0-------------------|----------------------|----------------------|


                                                ^                    
  Q    Q    Q    Q       Q    Q    Q    Q       Q    Q    Q    Q     
--2-------------------|-----------------2----|--0-------------------|
--3---------5---------|----------------------|--0-------------------|
--2----2---------2----|--2----1----2---------|------------2----1----|
--0---------4---------|--0-------------------|-------2--------------|
----------------------|----------------------|--4-------------------|
----------------------|----------------------|----------------------|


                                   ^                                 
  Q    Q    Q    Q       Q    Q    Q    Q       Q    Q    Q    Q     
-----------------0----|----------------------|----------------------|
----------------------|--5----3----3----2----|--2----0----0---------|
--2----1----2---------|------------2---------|-----------------2----|
----------------------|--4-------------------|------------2---------|
--4-------------------|--2---------0---------|----------------------|
----------------------|----------------------|--0-------------------|


                                                ^                    
  Q    Q    Q    Q       Q    Q    Q    Q       Q    Q    Q    Q     
----------------------|-----------------0----|--2--------------2----|
--0----2----2---------|------------2---------|--1---------1---------|
----------------------|-------2--------------|--2----2--------------|
-----------------2----|----------------------|--1-------------------|
--0---------0---------|--0-------------------|----------------------|
----------------------|----------------------|----------------------|


  ^                                                                   
  Q    Q    Q    Q       Q    Q    Q    E  E     Q    Q    Q    Q     
--4----4----4---------|-----------------------|--0-------------------|
--4--------------7----|--5--------------2--3--|------------3----2----|
--5---------5---------|------------6----------|-------3--------------|
--6-------------------|-------6---------------|----------------------|
----------------------|--4--------------------|----------------------|
----------------------|-----------------------|--2-------------------|


                                                  ^                     
  Q    Q    Q    Q       Q    E  E  E  Q.         Q    Q     Q    Q     
------------0---------|--2-------4-----5------|---9--------------------|
--3-------------------|-----------------------|--10---------10---------|
----------------------|-------2-----2---------|---9----9----------9----|
-------4---------4----|--0--------------------|------------------------|
--2---------0---------|-----------------------|------------------------|
----------------------|-----------------------|---0--------------------|


  ^                                                                  
  W                   W                   E   E  E   E  E   E  Q     
--7----------------|--L----------------|----------------------------|
--9----------------|--L----------------|----------------3p--2--0----|
--7----------------|--L----------------|---------2h--4--------------|
-------------------|-------------------|--2h--4---------------------|
-------------------|-------------------|----------------------------|
--0----------------|--L----------------|----------------------------|


  ^                                               ^                    
  Q    Q    Q    Q       Q    Q    E  E  E  E     Q    Q    Q    Q     
----------------------|------------------------|-------0----0---------|
--0----2----2---------|------------------0--2--|--0-------------------|
------------2---------|--2------------2--------|------------1---------|
--2--------------2----|-------2----------------|--2--------------2----|
--0-------------------|------------0-----------|--4-------------------|
----------------------|------------------------|----------------------|


                           ^                                              
  Q    Q    E  E  E  E     Q    Q    Q    Q       Q    E.  S  E  E.  E.   
---------------0--2--4--|--4----5----5---------|-------7---7h-9--7---5---|
--2---------------------|------------2---------|--2----------------------|
------------------------|--2--------------2----|-------------------------|
-------2----------------|----------------------|-------------------------|
------------------------|----------------------|-------------------------|
------------0-----------|--2-------------------|-------------------------|


  Q    Q    Q    Q       Q    Q    Q    Q       Q    Q    Q    Q     
--4-------------------|-------5----4---------|--0----2----2---------|
------------5---------|-----------------5----|------------3---------|
-------6---------6----|----------------------|--1--------------2----|
----------------------|----------------------|--0-------------------|
----------------------|--7-------------------|----------------------|
--0-------------------|----------------------|----------------------|


  Q    Q    Q    E  E     Q    Q    Q    Q       Q    Q    Q    E  E   
-----------------0-----|-------0----0---------|-----------------------|
--3-----------------3--|--3-------------------|--2-----------------0--|
-------2---------------|-----------------2----|-------2---------2-----|
------------0----------|------------2---------|------------2----------|
-----------------------|--4-------------------|-----------------------|
-----------------------|----------------------|-----------------------|


  ^                                             ^                    
  Q    Q    Q    Q       Q    Q    Q    Q       Q    Q    Q    Q     
----------------------|------------0---------|----------------------|
--2----3----3---------|-----------------3----|--2-------------------|
----------------------|--2-------------------|--2---------2---------|
--4--------------4----|-------4--------------|--4----4---------4----|
--2-------------------|----------------------|----------------------|
----------------------|----------------------|--0-------------------|


  Q    Q    Q    Q       Q    Q    Q    Q       Q    Q    E  E  E  E   
----------------------|----------------------|------------------------|
--0--------------0----|--0----2----2---------|------------------0--2--|
--1---------2---------|------------2---------|--2------------2--------|
-------2--------------|--2--------------2----|-------2----------------|
----------------------|--0-------------------|------------0-----------|
--0-------------------|----------------------|------------------------|


                                                  ^                    
  Q    Q    Q    Q       Q    Q    E  E  E  E     Q    Q    Q    Q     
-------0----0---------|---------------0--2--4--|--4----5----5---------|
--0-------------------|--2---------------------|------------2---------|
------------1---------|------------------------|--2--------------2----|
--2--------------2----|-------2----------------|----------------------|
--4-------------------|------------------------|----------------------|
----------------------|------------0-----------|--2-------------------|


  Q    E.  S  E  E.  E.     Q    Q    Q    Q       Q    Q    Q    Q     
-------7---7h-9--7---5---|--4-------------------|-------5----4---------|
--2----------------------|------------5---------|-----------------5----|
-------------------------|-------6---------6----|----------------------|
-------------------------|----------------------|----------------------|
-------------------------|----------------------|--7-------------------|
-------------------------|--0-------------------|----------------------|


  Q    Q    Q    Q       H.           E  E     Q    Q    Q    Q     
--0----2----2---------|---------------0-----|-------0----0---------|
------------3---------|--3---------------3--|--3-------------------|
--1--------------2----|---------------------|-----------------2----|
--0-------------------|---------------------|------------2---------|
----------------------|---------------------|--4-------------------|
----------------------|---------------------|----------------------|


                          ^                                           
  Q    Q    Q    E  E     Q    Q    Q    Q       Q    Q    Q    Q     
-----------------------|----------------------|----------------------|
--2-----------------0--|--2----3----3---------|----------------------|
-------2---------2-----|----------------------|--2---------1---------|
------------2----------|--4--------------4----|-------2---------2----|
-----------------------|--2-------------------|----------------------|
-----------------------|----------------------|--0-------------------|


                                               ^                     
  Q    Q    Q    Q       H        Q    Q       Q     Q    Q    Q     
----------------------|-----------7----9----|--9----10--------------|
------------2---------|---------------------|------------------7----|
--2-------------------|---------------------|--7----------7---------|
-------2---------2----|---------------------|-----------------------|
--0-------------------|--0------------------|-----------------------|
----------------------|---------------------|--7--------------------|


  Q    Q    Q    Q       W                  
--5---------4---------|-------------------||
----------------------|-------------------||
----------------------|-------------------||
-------6---------6----|--7----------------||
--7---------7---------|--7----------------||
----------------------|--5----------------||




Duration Legend
---------------
W - whole
H - half
Q - quarter
E - 8th
S - 16th
T - 32nd
X - 64th
. - note dotted


Tablature Legend
----------------
L - tied note - let the note ring
h - hammer on
p - pull off
^ - brush up



echo "Hello World!";

Play until your fingers bleed!
comments
print report bad tab
1 comment total.
0 reply
darkstar222 wrote on January 5 2014, 10:35 pm

I trust your tabs man =D

I want to post or [tab]
guest
You may want to rate the tab now too:
select rating
Please do not post tabs as comments. Select "correction" instead!