Oops, an error
Loading. Please wait.

Anguish And Fear Tab

ver2
ver2

Whole song

Interactive

More versions @911Tabs.com
687 views 1 this week
no commentswrite comment
1 2 3 4 5
please rate
add to favorites launch autoscroll
font size
0
reset
Autoscroll
+/-
esc
set tempo
stop
Contributor
Tuning
D# G# C# F# A# D#
WARNING: You are trying to view
                                    content from Ultimate-Guitar.com
                                    in an unauthorized application,
                                    which is prohibited.

                                    Please use an official Ultimate
                                    Guitar Tabs application for iPhone,
                                    iPad or Android to access legitimate
                                    chords, guitar, bass, and drum tabs
                                    from Ultimate-Guitar.com database.

                                    Type "ultimate guitar tabs" in Apple
                                    App Store's or Android Market's
                                    search to find the application.
#----------------------------------PLEASE NOTE---------------------------------#
#This file is the author's own work and represents their interpretation of the #
#song. You may only use this file for private study, scholarship, or research. #
#------------------------------------------------------------------------------#

ANGUISH AND FEAR
As recorded by Yngwie J. Malmsteen's Rising Force
(From the 1985 Album MARCHING OUT)

Transcribed by Wolf Marshall
	

Words and Music by Malmsteen/Soto

F5
1 3 3 x x x
	
E7/G#
4 7 x 7 x x
	
A5
x 0 2 2 x x
	
E5
0 2 2 x x x

Gtr I (Eb Ab Db Gb Bb Eb) - 'Guitar I'
Gtr II (Eb Ab Db Gb Bb Eb) - 'Guitar II'
Gtr III (Eb Ab Db Gb Bb Eb) - 'Guitar III'
Gtr IV (Eb Ab Db Gb Bb Eb) - 'Lead guitar'

   Intro (Main riff)
    Fast Rock Q=246
    F5                E7/G#             A5
   4/4
    Gtr II
    Q   Q   H         Q   Q   H         Q   Q   H
    |                 |                 |
    /                 /                 /

    Gtr I
    E E E E E E E E   E E E E E E E E   E E E E E E E E
||------------------|-----------------|-----------------|
||o-----------------|-----------------|-----------------|
||------------------|-----------------|-----------------|
||------------------|-----------------|-----------2---3-|
||o-----0-3-2-0-----|---2-5-2-3---2---|---3-2-5-3---5---|
||--0-1---------1-0-|-4---------5---4-|-5---------------|


                    F5                E7/G#
  W                 Q   Q   H         Q   Q   H
                    |                 |
                    /                 /

                                                |-3-|
  E E E E E E E E   E E E E E E E E   E E E E E S S S E E
|-----------------|-----------------|---------------------|
|-----------------|-----------------|---------------------|
|---2-------------|-----2-5-4p2-----|---4-7-4-5-4h5p4---5-|
|-2---5-3-2-------|-2h3---------3p2-|-6---------------7---|
|-----------5-3-2-|-----------------|---------------------|
|-----------------|-----------------|---------------------|


   W                 W
   ~~~~~~~~~~~~~~~~~~~~~~~~~~~~
   Q.   E +Q   Q    +E  Q.   Q  Q
|-----------------|------------------||
|-10----8-(8)--6--|-(6)-5-----------o||
|-10----9-(9)--7--|-(7)-5----7--5\---||
|-----------------|----------9--7\---||
|-----------------|-----------------o||
|-----------------|------------------||
   Q.   E +Q   Q    +E  Q.   Q  Q


    Fast Rock Q=246
    $
    F5                 E7/G#                  A5
   4/4
    Gtr II
    E E E  E E E E E    E E  E E  E  E E  E    E  E E  E  E E  E  E
    | | |  | | | | |    | |  | |  |  | |  |    |  | |  |  | |  |  |
    / / /  / / / / /    / /  / /  /  / /  /    /  / /  /  / /  /  /

    Gtr I
    E E E  E E E E E    E E  E E  E  E E  E    E  E E  E  E E  E  E
||-------------------|----------------------|-----------------------|
||o------------------|----------------------|-----------------------|
||-------------------|----------------------|---------------9----10-|
||------7-10-9p7-----|----9-12-9-10----9----|----10-9-12-10---12----|
||o-7-8----------8-7-|-11-----------12---11-|-12--------------------|
||-------------------|----------------------|-----------------------|


                       F5                 E7/G#
  E  E E  E E E  E E   E E E  E E E E E    E E  E E  E E  E  E
  |  | |  | | |  | |   | | |  | | | | |    | |  | |  | |  |  |
  /  / /  / / /  / /   / / /  / / / / /    / /  / /  / /  /  /

  E  E E  E E E  E E   E E E  E E E E E    E E  E E  E E  E  E
|--------------------|------------------|----------------------|
|---10-8-------------|------------------|----------------------|
|-9------10-9-7------|------------------|----------------------|
|---------------10-9-|-----7-10-9p7-----|----9-12-9-10-9----10-|
|--------------------|-7-8----------8-7-|-11-------------12----|
|--------------------|------------------|----------------------|


   W                 W
   ~~~~~~~~~~~~~~~~~~~~~~~~~~~~
   Q.   E +Q   Q    +E  Q.   Q  Q
|-----------------|------------------||
|-10----8-(8)--6--|-(6)-5-----------o||
|-10----9-(9)--7--|-(7)-5----7--5\---||
|-----------------|----------9--7\---||
|-----------------|-----------------o||
|-----------------|------------------||
   Q.   E +Q   Q    +E  Q.   Q  Q


   E E  E  E E  E  E E    E E  E  E E  E  E E
|----8-12----8-12----8-|-12-8-10----8---------|
|-10------10------10---|---------12---10-12-8-|
|----------------------|----------------------|
|----------------------|----------------------|
|----------------------|----------------------|
|----------------------|----------------------|


                          |-3--|  |-3--|      |-3--|  |-3--|  |-3--|  |-3--|
   S  S  S  S  S  S  S S  E  E E  E  E E   a  E E  E  E E  E  E E  E  E E  E
|-12h13p12p10----------------------------|-----------------------------------|
|-------------13p12p10s9-----------------|-9-10p9----------------------------|
|------------------------12p10p9---------|--------12-10p9----10p9------------|
|--------------------------------12p10p9-|----------------12------12-10p9----|
|----------------------------------------|--------------------------------11-|
|----------------------------------------|-----------------------------------|


   Q  Q  H      W
|-------------|------||
|-------------|------||
|-------------|------||
|-------------|------||
|-12----------|------||
|-------------|------||


   Verse
    PM------------------------------------------------|
    E E E E E E E E   E E E E E E E E   E E E E E E E E
||------------------|-----------------|-----------------|
||o-----------------|-----------------|-----------------|
||------------------|-----------------|-----------------|
||------------------|-----------------|-----------------|
||o-0-0-0-0-0-0-0-0-|-0-0-0-0-0-0-0-0-|-0-0-0-0-0-0-0-0-|
||------------------|-----------------|-----------------|


                    PM----|    PM----------|    PM|
  E E E E E E E E   E E E E Q  E E   E E E E Q  E E
|-----------------|----------------|----------------|
|-----------------|----------------|----------------|
|-----------------|---------2------|---------2------|
|-----------------|---------2------|---------2------|
|-------0-3-2-0---|-0-0-0-0-0--0-0-|-0-0-0-0-0--0-0-|
|-0-1-3---------3-|----------------|----------------|


  PM------------|                     PM----|
  E E E E E E E E   E E E E E E E E   E E E E H
|-----------------|-----------------|--------------|
|-----------------|-----------------|--------------|
|-----------------|-----------------|---------2----|
|-----------------|-----------------|---------2----|
|-0-0-0-0-0-0-0-0-|-------0-3-2-0---|-0-0-0-0-0----|
|-----------------|-0-1-3---------3-|--------------|


  PM--|    PM--|      PM--|    PM------|
  |-3-|    |-3-|      |-3-|    |-3-|
  E E E Q  E E E Q    E E E Q  E E E E E   E E E E E E E E
|-------------------|--------------------|-----------------|
|-------------------|--------------------|-----------------|
|-------------------|--------------------|-----------------|
|-------------------|--------------------|-----------------|
|-0-0-0-0--0-0-0-0--|-0-0-0-0--0-0-0-0-0-|-------0-3-2-0---|
|-------------------|--------------------|-0-1-3---------3-|


                               PM------------|
  W          Q.   E +Q   E E   E E E E E E E E   E E E E E E E E
|----------|-----------------|-----------------|-----------------||
|----------|-----------------|-----------------|-----------------||
|-2--------|-2----2-(2)------|-----------------|-----------------||
|-2--------|-2----2-(2)------|-----------------|-----------------||
|-0--------|-0----0-(0)--0-0-|-0-0-0-0---0-0-0-|-------0-3-2-0---||
|----------|-----------------|-----------------|-0-1-3---------3-||


 Chorus
            PM---------------------|                PM---------------------|
  Q   H     E E     E  E E E E E E E     Q    H     E E     E  E E E E E E E
|---------------|--------------------|------------------|--------------------|
|---------------|--------------------|------------------|--------------------|
|-----2---------|--------------------|--------4---------|--------------------|
|-----2---------|--------------------|--------5---------|--------------------|
|-0---0-----0-0-|---0--0-0-0-0-0-0-0-|---0----------0-0-|---0--0-0-0-0-0-0-0-|
|---------------|--------------------|------------------|--------------------|
|
|   Gtr III
|     ~~~~~~~~~~~~~~~~~                       ~~~~~~~~~~~~~~~~~
| Q   H.           +W                   +Q    H.           +W
|---------------|--------------------|------------------|--------------------|
|----13---------|-(13)---------------|-(13)--12---------|-(12)---------------|
|----14---------|-(14)---------------|-(14)--12---------|-(12)---------------|
|---------------|--------------------|------------------|--------------------|
|---------------|--------------------|------------------|--------------------|
|---------------|--------------------|------------------|--------------------|
  Q   H.           +W                   +Q    H.           +W


               PM---------------------|
    Q    H     E E     E  E E E E E E E
|------------------|--------------------|
|------------------|--------------------|
|--------2---------|--------------------|
|--------3---------|--------------------|
|---0----------0-0-|---0--0-0-0-0-0-0-0-|
|------------------|--------------------|
|
|        ~~~~~~~~~~~~~~~~~
|  +Q    H.           +W
|------------------|--------------------|
|-(12)--10---------|-(10)---------------|
|-(12)--10---------|-(10)---------------|
|------------------|--------------------|
|------------------|--------------------|
|------------------|--------------------|
   +Q    H.           +W


               PM---------------------|
    Q    H     E E     E  E E E E E E E
|------------------|--------------------|
|------------------|--------------------|
|--------4---------|--------------------|
|--------5---------|--------------------|
|---0----------0-0-|---0--0-0-0-0-0-0-0-|
|------------------|--------------------|
|
|        ~~~~~~~~~~~~~~~~~
|  +Q    H.           +W
|------------------|--------------------|
|-(10)--12---------|-(12)---------------|
|-(10)--12---------|-(12)---------------|
|------------------|--------------------|
|------------------|--------------------|
|------------------|--------------------|
   +Q    H.           +W


               PM---------------------|
    Q    H     E E     E  E E E E E E E
|------------------|--------------------|
|------------------|--------------------|
|--------2---------|--------------------|
|--------2---------|--------------------|
|---0----------0-0-|---0--0-0-0-0-0-0-0-|
|------------------|--------------------|
|
|        ~~~~~~~~~~~~~~~~~
|  +Q    H.           +W
|------------------|--------------------|
|-(12)--13---------|-(13)---------------|
|-(12)--14---------|-(14)---------------|
|------------------|--------------------|
|------------------|--------------------|
|------------------|--------------------|
   +Q    H.           +W


               PM---------------------|
    Q    H     E E     E  E E E E E E E
|------------------|--------------------|
|------------------|--------------------|
|--------4---------|--------------------|
|--------5---------|--------------------|
|---0----------0-0-|---0--0-0-0-0-0-0-0-|
|------------------|--------------------|
|
|        ~~~~~~~~~~~~~~~~~
|  +Q    H.           +W
|------------------|--------------------|
|-(13)--12---------|-(12)---------------|
|-(14)--12---------|-(12)---------------|
|------------------|--------------------|
|------------------|--------------------|
|------------------|--------------------|
   +Q    H.           +W


               PM---------------------|
    Q    H     E E     E  E E E E E E E
|------------------|--------------------|
|------------------|--------------------|
|--------2---------|--------------------|
|--------3---------|--------------------|
|---0----------0-0-|---0--0-0-0-0-0-0-0-|
|------------------|--------------------|
|
|        ~~~~~~~~~~~~~~~~~
|  +Q    H.           +W
|------------------|--------------------|
|-(12)--10---------|-(10)---------------|
|-(12)--10---------|-(10)---------------|
|------------------|--------------------|
|------------------|--------------------|
|------------------|--------------------|
   +Q    H.           +W


                               To Coda
               PM---------------------|
    Q    H     E E     E  E E E E E E E
|------------------|--------------------||
|------------------|--------------------||
|--------4---------|--------------------||
|--------5---------|--------------------||
|---0----------0-0-|---0--0-0-0-0-0-0-0-||
|------------------|--------------------||
|
|        ~~~~~~~~~~~~~~~~~
|  +Q    H.           +W
|------------------|--------------------||
|-(10)--12---------|-(12)---------------||
|-(10)--12---------|-(12)---------------||
|------------------|--------------------||
|------------------|--------------------||
|------------------|--------------------||
   +Q    H.           +W


   E E  E  E E  E  E E    E E  E  E E  E  E E
|----8-12----8-12----8-|-12-8-10----8---------|
|-10------10------10---|---------12---10-12-8-|
|----------------------|----------------------|
|----------------------|----------------------|
|----------------------|----------------------|
|----------------------|----------------------|


                          |-3--|  |-3--|      |-3--|  |-3--|  |-3--|  |-3--|
   S  S  S  S  S  S  S S  E  E E  E  E E   a  E E  E  E E  E  E E  E  E E  E
|-12h13p12p10----------------------------|-----------------------------------|
|-------------13p12p10s9-----------------|-9-10p9----------------------------|
|------------------------12p10p9---------|--------12-10p9----10p9------------|
|--------------------------------12p10p9-|----------------12------12-10p9----|
|----------------------------------------|--------------------------------11-|
|----------------------------------------|-----------------------------------|


   Q  Q  H      W
|-------------|-------||
|-------------|------o||
|-------------|-------||
|-------------|-------||
|-12----------|------o||
|-------------|-------||


 Interlude (Main riff)
  F5                E7/G#             A5
 4/4
  Gtr II
  Q   Q   H         Q   Q   H         Q   Q   H
  |                 |                 |
  /                 /                 /

  Gtr I
  E E E E E E E E   E E E E E E E E   E E E E E E E E
|-----------------|-----------------|-----------------|
|-----------------|-----------------|-----------------|
|-----------------|-----------------|-----------------|
|-----------------|-----------------|-----------2---3-|
|-----0-3-2-0-----|---2-5-2-3---2---|---3-2-5-3---5---|
|-0-1---------1-0-|-4---------5---4-|-5---------------|


                    F5                E5
  W                 Q   Q   H         Q   Q   H
                    |                 |
                    /                 /

                                                |-3-|
  E E E E E E E E   E E E E E E E E   E E E E E S S S E E
|-----------------|-----------------|---------------------|
|-----------------|-----------------|---------------------|
|---2-------------|-----2-5-4p2-----|---4-7-4-5-4h5p4---5-|
|-2---5-3-2-------|-2h3---------3p2-|-6---------------7---|
|-----------5-3-2-|-----------------|---------------------|
|-----------------|-----------------|---------------------|


  Gtr IV
                           |--3---|  |--3--|
   S   S  S S  S  S  S  S  E   E  E  E  E  E
|-------------------------13p=12p10----------|
|-------------------10-12-----------13p12p10s|
|-----------9-10-12--------------------------|
|--9--10-12----------------------------------|
|--------------------------------------------|
|--------------------------------------------|
|
| Gtr I
|  ~~~~~~~~~~~~~~~~~~~~~~~~~~~~~~~~~~~~~~~~~~~
|  Q.                E    +Q         Q
|--------------------------------------------|
|-10-----------------8----(8)--------6-------|
|-10-----------------9----(9)--------7-------|
|--------------------------------------------|
|--------------------------------------------|
|--------------------------------------------|
   Q.                E    +Q         Q


                               ~~~~
   S   S S   S S S  a  E      +H
|------------------13s20b22==(20)-------||
|-12p=10p9------------------------------||
|-----------10p9------------------------||
|----------------x----------------------||
|---------------------------------------||
|---------------------------------------||
|
|~~~~~~~~~~~~~~~~~~~~~~~~~~~~~~~~~
| +E     Q.                    Q   Q
|---------------------------------------||
|-(6)----5------------------------------||
|-(7)----5---------------------7---5\---||
|------------------------------9---7\---||
|---------------------------------------||
|---------------------------------------||
  +E     Q.                    Q   Q


 Guitar solo
  Gtr II
    E  E  E    E     E    E     E    E
    |  |  |    |     |    |     |    |
    o  /  /    /     /    /     /    /

    ~~~~
          |---3---|  |---3---|  |---3---|
   +Q     E  E    E  E  E    E  E  E    E
|-(20)---20-19---17-20-19---17-19-17---16-|
|-----------------------------------------|
|-----------------------------------------|
|-----------------------------------------|
|-----------------------------------------|
|-----------------------------------------|


   E    E     E    E     E    E      E     E
   |    |     |    |     |    |      |     |
   /    /     /    /     /    /      /     /

   |---3---|  |---3---|  |---3---|
   E  E    E  E  E    E  E  E    E   S  S  S  S
|-19-17---16------------------------12h13p12p10--|
|------------18-17---15-18-17---15\--------------|
|------------------------------------------------|
|------------------------------------------------|
|------------------------------------------------|
|------------------------------------------------|


   E    E     E    E    E    E E   E     E   E   E   E   E   E   E   E
   |    |     |    |    |    | |   |     |   |   |   |   |   |   |   |
   /    /     /    /    /    / /   /     /   /   /   /   /   /   /   /

                                                 PM--------------------|
   |---3---|                                     |--3--| |--3--| |--3--|
   E  E    E  S  S S  S S  S E S S S S   S S S S E E   E E E   E E E   E
|--------------------------------------|---------------------------------|
|-13p12p==10-12p10p9-------------------|---------------------------------|
|--------------------10p9----9---------|---------------------------------|
|-------------------------12---7h9-7p6-|---------9p7p==6-----------------|
|--------------------------------------|-8p7p5-x---------8p7p==5-8p7p==5-|
|--------------------------------------|---------------------------------|


  E   E   E E E E E E   E E E E E E E E   E E E E E E E E
  |   |   | | | | | |   | | | | | | | |   | | | | | | | |
  /   /   / / / / / /   / / / / / / / /   / / / / / / / /

  S S S S Q   H         W                 W
|---------------------|-----------------|-----------------|
|---------------------|-----------------|-----------------|
|---------------------|-----------------|-----------------|
|---------------------|-----------------|-----------------|
|---------------------|-----------------|-----------------|
|-8p7p5s6p0-----------|-----------------|-----------------|


  E E E E E  E E E   E     E    E     E       E       E    E    E
  | | | | |  | | |   |     |    |     |       |       |    |    |
  / / / / /  / / /   /     /    /     /       /       /    /    /

                     PM-----------|
                                         |--3---|
  H       H          S  S  S S  S  S  S  S  S   S  S  S S  S  S E
|------------------|----------------------------------------------|
|------------------|-----------------10h12p10p==9-----------------|
|---------x\-------|---------9-10-12--------------12p10p9---------|
|---------x\-------|-9-10-12------------------------------12p10p9-|
|---------x\-------|----------------------------------------------|
|------------------|----------------------------------------------|


   E    E    E    E     E   E     E    E
   |    |    |    |     |   |     |    |
   /    /    /    /     /   /     /    /

   |--3---|             |--3---|
   E  E   E  S  S S  S  E E    E  S S  S  S
|-------------------------------------------|
|-12p10---9------------10p9-----------------|
|-----------12p10p9-----------12-10p9-------|
|-------------------12----------------12-10-|
|-------------------------------------------|
|-------------------------------------------|


   E     E     E    E     E     E      E    E
   |     |     |    |     |     |      |    |
   /     /     /    /     /     /      /    /

               |---3---|               |---3---|
   S  S  S  S  E  E    E  S  S  S.  T  E  E    E
|-12h13p12p10------------16p13-----16S19-16------|
|-------------13p12p==10-------15-------------18-|
|------------------------------------------------|
|------------------------------------------------|
|------------------------------------------------|
|------------------------------------------------|


   E    E        E    E        E     E E E
   |    |        |    |        |     | | |
   /    /        /    /        /     / / /

                               ~~~~~~
   |----3-----|  |---3---|
   E  E    S  S  E  E    E  a  H
|-16p13------16S19-16------19s21b24========|
|---------15------------18-----------------|
|------------------------------------------|
|------------------------------------------|
|------------------------------------------|
|------------------------------------------|


    E  E E E      E    E E E   E E E E E E E E
    |  | | |      |    | | |   | | | | | | | |
    /  / / /      /    / / /   / / / / / / / /

                  ~~~~~
   +H        a a  H            W
|-(21)-----------21b24-------|------------------|
|--------------x-------------|------------------|
|------------x---------------|------------------|
|----------------------------|------------------|
|----------------------------|------------------|
|----------------------------|------------------|


  E E E E E E E E   E E E E E E E E   E E E E E E  E     E
  | | | | | | | |   | | | | | | | |   | | | | | |  |     |
  / / / / / / / /   / / / / / / / /   / / / / / /  /     /

                                                   ~~~~~~
  W                 W                 H       Q    Q
|-----------------|-----------------|-------------21b24====|
|-----------------|-----------------|----------------------|
|-----------------|-----------------|----------------------|
|-----------------|-----------------|----------------------|
|-----------------|-----------------|----------------------|
|-----------------|-----------------|----------------------|


    E  E E       E   E  E E E     E  E E E          E   E E          E
    |  | |       |   |  | | |     |  | | |          |   | |          |
    /  / /       /   /  / / /     /  / / /          /   / /          /

            \1/                                     /1\
    ~~~~~        ~~~~~~~~~~~~~~~~~~~~               ~~~~~
   +Q.      a    E  +H           +H         a       Q.       a       E
|-(21)r====21---19-(19)-------|-(19)------------------------------------|
|-----------------------------|--------------------15---------------15--|
|-----------------------------|------------14b16==(14)------14b16==(14)-|
|-----------------------------|-----------------------------------------|
|-----------------------------|-----------------------------------------|
|-----------------------------|-----------------------------------------|


    E  E E   E  E E E E   E  E       E  E   E  E E E
    |  | |   |  | | | |   |  |       |  |   |  | | |
    /  / /   /  / / / /   /  /       /  /   /  / / /

    \1/                                     \3
   +H       +H            E  E      +Q     +H
|-----------------------|-----------------------------|
|-(15)r====(15)---------|---15b17==(15)r==(15)--------|
|-(14)-----(14)---------|-----------------------------|
|-----------------------|----x------------------------|
|-----------------------|----x------------------------|
|-----------------------|-----------------------------|


  E E E E E E E E   E E E E E E E E   E E E E E E E E   E E E E E E E E
  | | | | | | | |   | | | | | | | |   | | | | | | | |   | | | | | | | |
  / / / / / / / /   / / / / / / / /   / / / / / / / /   / / / / / / / /

  W                 W                 W                 W
|-----------------|-----------------|-----------------|-----------------|
|-----------------|-----------------|-----------------|-----------------|
|-----------------|-----------------|-----------------|-----------------|
|-----------------|-----------------|-----------------|-----------------|
|-----------------|-----------------|-----------------|-----------------|
|-----------------|-----------------|-----------------|-----------------|


     E E E E E E E E    E E E E E E E E
     | | | | | | | |    | | | | | | | |
     / / / / / / / /    / / / / / / / /

     ~~~~~~~~~~~~~~~~~~~~~~~~~~~~~
  a  H       H          H       H
|--------------------|------------------|
|--------------------|-10-------9-------|
|-9s10-------9-------|------------------|
|--------------------|------------------|
|--------------------|------------------|
|--------------------|------------------|


   E E  E E  E  E  E  E    E  E  E  E  E     E   E  E
   | |  | |  |  |  |  |    |  |  |  |  |     |   |  |
   / /  / /  /  /  /  /    /  /  /  /  /     /   /  /

                                       ~~~~~~
   E E  E E  E  E  E  E    E  E  E  E  Q        +Q
|-----------------13-12-|-17-16-20-19-21b24====(21)r===|
|------10-9-13-12-------|------------------------------|
|-10-9------------------|------------------------------|
|-----------------------|------------------------------|
|-----------------------|------------------------------|
|-----------------------|------------------------------|


   E    E     E    E     E    E     E    E
   |    |     |    |     |    |     |    |
   /    /     /    /     /    /     /    /

   |---3---|  |---3---|  |---3---|  |---3---|
   E  E    E  E  E    E  E  E    E  E  E    E
|-20-19---17-16-17---19-20-19---17-16-17---19-|
|---------------------------------------------|
|---------------------------------------------|
|---------------------------------------------|
|---------------------------------------------|
|---------------------------------------------|


   E    E     E    E     E     E     E E
   |    |     |    |     |     |     | |
   /    /     /    /     /     /     / /

   |---3---|  |---3---|
   E  E    E  E  E    E  S  S  S  S  Q
|-20-19---17s16---------------------------|
|---------------18---17-15----------------|
|--------------------------17-16-14-13----|
|-----------------------------------------|
|-----------------------------------------|
|-----------------------------------------|


                           D.S. al Coda
     E E E E  E E  E E   E E E E E E E E
     | | | |  | |  | |   | | | | | | | |
     / / / /  / /  / /   / / / / / / / /

     ~~                  ~
  a  H        Q    Q     W
|----------------------|-----------------||
|----------------------|-----------------||
|-xs10------------10---|-9---------------||
|------------12--------|-----------------||
|----------------------|-----------------||
|----------------------|-----------------||


 Chorus (Outro)
  &
  Gtr I
            PM---------------------|                PM---------------------|
  Q   H     E E     E  E E E E E E E     Q    H     E E     E  E E E E E E E
|---------------|--------------------|------------------|--------------------|
|---------------|--------------------|------------------|--------------------|
|-----2---------|--------------------|--------4---------|--------------------|
|-----2---------|--------------------|--------5---------|--------------------|
|-0---0-----0-0-|---0--0-0-0-0-0-0-0-|---0----------0-0-|---0--0-0-0-0-0-0-0-|
|---------------|--------------------|------------------|--------------------|
|
|   Gtr III
|     ~~~~~~~~~~~~~~~~~                       ~~~~~~~~~~~~~~~~~
| Q   H.           +W                   +Q    H.           +W
|---------------|--------------------|------------------|--------------------|
|----13---------|-(13)---------------|-(13)--12---------|-(12)---------------|
|----14---------|-(14)---------------|-(14)--12---------|-(12)---------------|
|---------------|--------------------|------------------|--------------------|
|---------------|--------------------|------------------|--------------------|
|---------------|--------------------|------------------|--------------------|
  Q   H.           +W                   +Q    H.           +W


               PM---------------------|
    Q    H     E E     E  E E E E E E E
|------------------|--------------------|
|------------------|--------------------|
|--------2---------|--------------------|
|--------3---------|--------------------|
|---0----------0-0-|---0--0-0-0-0-0-0-0-|
|------------------|--------------------|
|
|        ~~~~~~~~~~~~~~~~~
|  +Q    H.           +W
|------------------|--------------------|
|-(12)--10---------|-(10)---------------|
|-(12)--10---------|-(10)---------------|
|------------------|--------------------|
|------------------|--------------------|
|------------------|--------------------|
   +Q    H.           +W


               PM---------------------|
    Q    H     E E     E  E E E E E E E
|------------------|--------------------|
|------------------|--------------------|
|--------4---------|--------------------|
|--------5---------|--------------------|
|---0----------0-0-|---0--0-0-0-0-0-0-0-|
|------------------|--------------------|
|
|        ~~~~~~~~~~~~~~~~~
|  +Q    H.           +W
|------------------|--------------------|
|-(10)--12---------|-(12)---------------|
|-(10)--12---------|-(12)---------------|
|------------------|--------------------|
|------------------|--------------------|
|------------------|--------------------|
   +Q    H.           +W


               PM---------------------|
    Q    H     E E     E  E E E E E E E
|------------------|--------------------|
|------------------|--------------------|
|--------2---------|--------------------|
|--------2---------|--------------------|
|---0----------0-0-|---0--0-0-0-0-0-0-0-|
|------------------|--------------------|
|
|        ~~~~~~~~~~~~~~~~~
|  +Q    H.           +W
|------------------|--------------------|
|-(12)--13---------|-(13)---------------|
|-(12)--14---------|-(14)---------------|
|------------------|--------------------|
|------------------|--------------------|
|------------------|--------------------|
   +Q    H.           +W


               PM---------------------|
    Q    H     E E     E  E E E E E E E
|------------------|--------------------|
|------------------|--------------------|
|--------4---------|--------------------|
|--------5---------|--------------------|
|---0----------0-0-|---0--0-0-0-0-0-0-0-|
|------------------|--------------------|
|
|        ~~~~~~~~~~~~~~~~~
|  +Q    H.           +W
|------------------|--------------------|
|-(13)--12---------|-(12)---------------|
|-(14)--12---------|-(12)---------------|
|------------------|--------------------|
|------------------|--------------------|
|------------------|--------------------|
   +Q    H.           +W


               PM---------------------|
    Q    H     E E     E  E E E E E E E
|------------------|--------------------|
|------------------|--------------------|
|--------2---------|--------------------|
|--------3---------|--------------------|
|---0----------0-0-|---0--0-0-0-0-0-0-0-|
|------------------|--------------------|
|
|        ~~~~~~~~~~~~~~~~~
|  +Q    H.           +W
|------------------|--------------------|
|-(12)--10---------|-(10)---------------|
|-(12)--10---------|-(10)---------------|
|------------------|--------------------|
|------------------|--------------------|
|------------------|--------------------|
   +Q    H.           +W


               PM---------------------|
    Q    H     E E     E  E E E E E E E
|------------------|--------------------|
|------------------|--------------------|
|--------4---------|--------------------|
|--------5---------|--------------------|
|---0----------0-0-|---0--0-0-0-0-0-0-0-|
|------------------|--------------------|
|
|        ~~~~~~~~~~~~~~~~~
|  +Q    H.           +W
|------------------|--------------------|
|-(10)--12---------|-(12)---------------|
|-(10)--12---------|-(12)---------------|
|------------------|--------------------|
|------------------|--------------------|
|------------------|--------------------|
   +Q    H.           +W


   E E  E  E E  E  E E    E E  E  E E  E  E E
|----8-12----8-12----8-|-12-8-10----8---------|
|-10------10------10---|---------12---10-12-8-|
|----------------------|----------------------|
|----------------------|----------------------|
|----------------------|----------------------|
|----------------------|----------------------|


                          |-3--|  |-3--|
   S  S  S  S  S  S  S S  E  E E  E  E E
|-12h13p12p10----------------------------|
|-------------13p12p10s9-----------------|
|------------------------12p10p9---------|
|--------------------------------12p10p9-|
|----------------------------------------|
|----------------------------------------|


                                       ~~
     |-3--|  |-3--|  |-3--|  |-3--|
  a  E E  E  E E  E  E E  E  E E  E    Q  Q  H
|-----------------------------------|-----------*|
|-9-10p9----------------------------|-----------*|
|--------12-10p9----10p9------------|-----------*|
|----------------12------12-10p9----|-----------*|
|--------------------------------11-|-12--------*|
|-----------------------------------|-----------*|



Duration Legend
---------------
W - whole; H - half; Q - quarter; E - 8th; S - 16th; T - 32nd; X - 64th; a - acciaccatura
+ - note tied to previous; . - note dotted; .. - note double dotted
Uncapitalized letters represent notes that are staccato (1/2 duration)
Irregular groupings are notated above the duration line
Duration letters will always appear directly above the note/fret number it represents the
duration for.  Duration letters with no fret number below them represent rests.  Multi-
bar rests are notated in the form Wxn, where n is the number of bars to rest for.  Low
melody durations appear below the staff

Tablature Legend
----------------
 h   - hammer-on
 p   - pull-off
 b   - bend
 pb  - pre-bend
 r   - bend release (if no number after the r, then release immediately)
 /\  - slide into or out of (from/to "nowhere")
 s   - legato slide
 S   - shift slide
<n> - natural harmonic
[n]  - artificial harmonic
n(n) - tapped harmonic
 ~   - vibrato
 tr  - trill
 T   - tap
 TP  - trem. picking
 PM  - palm muting
\n/  - tremolo bar dip; n = amount to dip
 \n  - tremolo bar down
 n/  - tremolo bar up
/n\  - tremolo bar inverted dip
 =   - hold bend; also acts as connecting device for hammers/pulls
 <> - volume swell (louder/softer)
 x   - on rhythm slash represents muted slash
 o   - on rhythm slash represents single note slash

Misc Legend
-----------
 |  - bar
||  - double bar
||o - repeat start
o|| - repeat end
*|  - double bar (ending)
 :  - bar (freetime)
 $  - Segno
 &  - Coda
Tempo markers - <E/E./Q/Q./H/H.> = BPM(8/16=s8/s16), where s8 = swing 8ths, s16 = swing 16ths

comments
We did not receive enough feedback on this tab! Please rate:
print report bad tab
1 2 3 4 5
I want to post or [tab]
guest
You may want to rate the tab now too:
select rating
Please do not post tabs as comments. Select "correction" instead!