Oops, an error
Loading. Please wait.

Asylum Part 1 Tab

2,991 views 3 this week
no commentswrite comment
1 2 3 4 5
excellent!
x 2
add to favorites launch autoscroll
font size
0
reset
Autoscroll
+/-
esc
set tempo
stop
Contributor
Tuning
D# G# C# F# A# D#
WARNING: You are trying to view
                                    content from Ultimate-Guitar.com
                                    in an unauthorized application,
                                    which is prohibited.

                                    Please use an official Ultimate
                                    Guitar Tabs application for iPhone,
                                    iPad or Android to access legitimate
                                    chords, guitar, bass, and drum tabs
                                    from Ultimate-Guitar.com database.

                                    Type "ultimate guitar tabs" in Apple
                                    App Store's or Android Market's
                                    search to find the application.
#----------------------------------PLEASE NOTE---------------------------------#
#This file is the author's own work and represents their interpretation of the #
#song. You may only use this file for private study, scholarship, or research. #
#------------------------------------------------------------------------------#

ASYLUM - PART 1
As recorded by Yngwie Malmsteen
(From the 1999 Album ALCHEMY)

Transcribed by http://starnouf.chez.tiscali.fr/
        



Gtr I (Eb Ab Db Gb Bb Eb) - 'Untitled'
Gtr II (Eb Ab Db Gb Bb Eb) - 'Untitled'

  Q=110
 4/4
  Gtr I
   |------6-------|  |------6-------|  |-----6------|  |----6-----|
   S  S  S  S  S  S  S  S  S  S  S  S  S S  S  S  S S  S S S  S S S
|-15-12-14-15-14-12-------------------------------------------------|
|-------------------14-11-12-14-12-11-------------------------------|
|-------------------------------------12-9-11-12-11-9---------------|
|-----------------------------------------------------11-8-9-11-9-8-|
|-------------------------------------------------------------------|
|-------------------------------------------------------------------|


   |-----6------|  |------6-------|  |------6-------|  |------6-------|
   S S  S  S  S S  S  S  S  S  S  S  S  S  S  S  S  S  S  S  S  S  S  S
|-----------------------------------15-12-14-15-14-12-21-18-19-21-19-18----|
|-----------------14-11-12-14-12-11----------------------------------------|
|-12-9-11-12-11-9----------------------------------------------------------|
|--------------------------------------------------------------------------|
|--------------------------------------------------------------------------|
|--------------------------------------------------------------------------|


   ~~
         |------6-------|  |--------7--------|
   H     S  S  S  S  S  S  S  S  S  S  S  S  S
|-19----19-17-15-------------------------------|
|----------------19-17-15-15-14-12-------------|
|----------------------------------14-12-11----|
|-------------------------------------------14-|
|----------------------------------------------|
|----------------------------------------------|


                                    ~~~~
   |------6-------|  |--3--|
   S  S  S  S  S  S  S  S  S  +E   +H
|-----------------------------------------||
|-----------------------------------------||
|----------12-11--------------------------||
|-12-11----------14-12-11-----------------||
|-------14----------------14-(14)-(14)----||
|-----------------------------------------||


   |------6-------|  |------6-------|  |------6-------|  |------6-------|
   S  S  S  S  S  S  S  S  S  S  S  S  S  S  S  S  S  S  S  S  S  S  S  S
|----------------12-15p12----------------------------14-19p14-------------|
|-------------14----------14----------------------15----------15----------|
|-------12h15----------------15p12-------------16----------------16-------|
|-11h14----------------------------14----12h16----------------------16p12-|
|-------------------------------------14----------------------------------|
|-------------------------------------------------------------------------|


   |------6-------|  |------6-------|  |------6-------|  |------6-------|
   S  S  S  S  S  S  S  S  S  S  S  S  S  S  S  S  S  S  S  S  S  S  S  S
|----------------12-15p12----------------------------14-19p14--------------|
|-------------14----------14----------------------15----------15-----------|
|-------12h15----------------15p12-------------16----------------16--------|
|-11h14----------------------------14----12h16----------------------16p12--|
|-------------------------------------14-----------------------------------|
|--------------------------------------------------------------------------|


   |------6-------|  |------6-------|  |------6-------|  |------6-------|
   S  S  S  S  S  S  S  S  S  S  S  S  S  S  S  S  S  S  S  S  S  S  S  S
|-15-14----------------------------------------------14-19-14----------14-|
|-------17-15-14----------------------------------15----------15----15----|
|----------------16-15-------------------------16----------------16-------|
|----------------------17-16-14-------------16----------------------------|
|-------------------------------17-16-14-17-------------------------------|
|-------------------------------------------------------------------------|


                                            ~~
   |------6-------|  |------6-------|
   S  S  S  S  S  S  S  S  S  S  S  S   Q   Q
|-16-13----------13-16-13----------13-/19--18--|
|-------15-12-15----------15-12-15-------------|
|----------------------------------------------|
|----------------------------------------------|
|----------------------------------------------|
|----------------------------------------------|


   |------6-------|  |------6-------|  |------6-------|  |------6-------|
   S  S  S  S  S  S  S  S  S  S  S  S  S  S  S  S  S  S  S  S  S  S  S  S
|----------------12-15p12----------------------------14-19p14-------------|
|-------------14----------14----------------------15----------15----------|
|-------12h15----------------15p12-------------16----------------16-------|
|-11h14----------------------------14----12h16----------------------16p12-|
|-------------------------------------14----------------------------------|
|-------------------------------------------------------------------------|


   |------6-------|  |------6-------|  |------6-------|  |------6-------|
   S  S  S  S  S  S  S  S  S  S  S  S  S  S  S  S  S  S  S  S  S  S  S  S
|----------------12-15p12----------------------------14-19p14--------------|
|-------------14----------14----------------------15----------15-----------|
|-------12h15----------------15p12-------------16----------------16--------|
|-11h14----------------------------14----12h16----------------------16p12--|
|-------------------------------------14-----------------------------------|
|--------------------------------------------------------------------------|


   |------6-------|  |------6-------|  |------6-------|  |------6-------|
   S  S  S  S  S  S  S  S  S  S  S  S  S  S  S  S  S  S  S  S  S  S  S  S
|-15-14----------------------------------------------14-19-14----------14-|
|-------17-15-14----------------------------------15----------15----15----|
|----------------16-15-------------------------16----------------16-------|
|----------------------17-16-14-------------16----------------------------|
|-------------------------------17-16-14-17-------------------------------|
|-------------------------------------------------------------------------|


   |------6-------|  |------6-------|  |------6-------|  |------6-------|
   S  S  S  S  S  S  S  S  S  S  S  S  S  S  S  S  S  S  S  S  S  S  S  S
|-16-13----------13-16-13----------13-18-15----------15-18-15----------15--|
|-------15-12-15----------15-12-15----------17-14-17----------17-14-17-----|
|--------------------------------------------------------------------------|
|--------------------------------------------------------------------------|
|--------------------------------------------------------------------------|
|--------------------------------------------------------------------------|


   |------6-------|  |------6-------|  |------6-------|  |------6-------|
   S  S  S  S  S  S  S  S  S  S  S  S  S  S  S  S  S  S  S  S  S  S  S  S
|-19-16----------16-19-16----------16-18-15----------15-18-15----------15-|
|-------18-15-18----------18-15-18----------17-14-17----------17-14-17----|
|-------------------------------------------------------------------------|
|-------------------------------------------------------------------------|
|-------------------------------------------------------------------------|
|-------------------------------------------------------------------------|


                                                         ~~~~
   |------6-------|  |--------7--------|  |--3--|
   S  S  S  S  S  S  S  S  S  S  S  S  S  S  S  S  +E   +Q
|-19-17-15-----------------------------------------------------||
|----------19-17-15-15-14--------------------------------------||
|-------------------------16-14--------------------------------||
|-------------------------------17-16-14-----------------------||
|----------------------------------------17-16-14-(14)-(14)----||
|--------------------------------------------------------------||


  |----6----| |----6----| |----6----| |----6----|
  S S S S S S S S S S S S S S S S S S S S S S S S
|-6-3-------3-6-3-------3-5-2-------2-5-2-------2-|
|-----3---3-------3---3-------3---3-------3---3---|
|-------3-----------3-----------2-----------2-----|
|-------------------------------------------------|
|-------------------------------------------------|
|-------------------------------------------------|


  |----6----| |----6----|  |----6----|  |----6----|
  S S S S S S S S S S S S  S S S S S S  S S S S S S
|-6-3-------3-6-3-------3-10-7-------7-10-7-------7--|
|-----3---3-------3---3--------8---8--------8---8----|
|-------3-----------3------------7------------7------|
|----------------------------------------------------|
|----------------------------------------------------|
|----------------------------------------------------|


   |----6----|  |----6----|  |----6----|  |----6----|
   S S S S S S  S S S S S S  S S S S S S  S S S S S S
|-11-8-------8-11-8-------8-10-7-------7-10-7-------7-|
|------8---8--------8---8--------8---8--------8---8---|
|--------8------------8------------7------------7-----|
|-----------------------------------------------------|
|-----------------------------------------------------|
|-----------------------------------------------------|


   |----6----|  |----6----|  |------6-------|  |------6-------|
   S S S S S S  S S S S S S  S  S  S  S  S  S  S  S  S  S  S  S
|-11-8-------8-11-8-------8-14-11----------11-14-11----------11--|
|------8---8--------8---8---------13-10-13----------13-10-13-----|
|--------8------------8------------------------------------------|
|----------------------------------------------------------------|
|----------------------------------------------------------------|
|----------------------------------------------------------------|


   |------6-------|  |------6-------|  |------6-------|  |------6-------|
   S  S  S  S  S  S  S  S  S  S  S  S  S  S  S  S  S  S  S  S  S  S  S  S
|-18-15----------15-18-15----------15-15----------------15-------------15-|
|-------15----15----------15----15-------15----------15----15-------------|
|----------15----------------15-------------15----15----------15----15----|
|----------------------------------------------17----------------17-------|
|-------------------------------------------------------------------------|
|-------------------------------------------------------------------------|


   |------6-------|  |-----6-----| |----6----|  |-----6-----|
   S  S  S  S  S  S  S S  S S  S S S S S S S S  S S  S S  S S
|-14-11----------11-11-8---------8-8-5-------5-11-8---------8--|
|-------13-10-13---------10-7-10-------7-4-7--------10-7-10----|
|--------------------------------------------------------------|
|--------------------------------------------------------------|
|--------------------------------------------------------------|
|--------------------------------------------------------------|


   |-----6-----| |----6----| |----6----| |----6----|
   S S  S S  S S S S S S S S S S S S S S S S S S S S
|-12-9---------9-9-6-------6-6-3-------3-9-6-------6-|
|------11-8-11-------8-5-8-------5-2-5-------8-5-8---|
|----------------------------------------------------|
|----------------------------------------------------|
|----------------------------------------------------|
|----------------------------------------------------|


                                            ~
   |-----6-----|  |-----6-----| |----6----|
   S S  S S  S S  S S  S S  S S S S S S S S Q
|-11-8---------8-11-8---------8-8-5-------5-8---|
|------10-7-10--------10-7-10-------7-4-7-------|
|-----------------------------------------------|
|-----------------------------------------------|
|-----------------------------------------------|
|-----------------------------------------------|


                                                                ~~
  |----6----| |----6----| |----6----| |----6----|
  S S S S S S S S S S S S S S S S S S S S S S S S   E  E  E  E  H
|-6-5-------5-6-5-------5-6-5-------5-6-5-6-5-----|------10-14-15----||
|-----8-7-8-------8-7-8-------8-7-8-----------8-7-|-8-11-------------||
|-------------------------------------------------|------------------||
|-------------------------------------------------|------------------||
|-------------------------------------------------|------------------||
|-------------------------------------------------|------------------||


   |----6----|  |----6----| |----6----| |----6----|
   S S S S S S  S S S S S S S S S S S S S S S S S S
|-10-7-------7-10-7-------7-9-6-------6-9-6-------6-|
|------7---7--------7---7-------7---7-------7---7---|
|--------7------------7-----------6-----------6-----|
|---------------------------------------------------|
|---------------------------------------------------|
|---------------------------------------------------|


   |----6----|  |----6----|  |------6-------|  |------6-------|
   S S S S S S  S S S S S S  S  S  S  S  S  S  S  S  S  S  S  S
|-10-7-------7-10-7-------7-14-11----------11-14-11----------11--|
|------7---7--------7---7---------12----12----------12----12-----|
|--------7------------7--------------11----------------11--------|
|----------------------------------------------------------------|
|----------------------------------------------------------------|
|----------------------------------------------------------------|


   |------6-------|  |------6-------|  |------6-------|  |------6-------|
   S  S  S  S  S  S  S  S  S  S  S  S  S  S  S  S  S  S  S  S  S  S  S  S
|-15-12----------12-15-12----------12-14-11----------11-14-11----------11-|
|-------12----12----------12----12----------12----12----------12----12----|
|----------12----------------12----------------11----------------11-------|
|-------------------------------------------------------------------------|
|-------------------------------------------------------------------------|
|-------------------------------------------------------------------------|


   |------6-------|  |------6-------|  |------6-------|  |------6-------|
   S  S  S  S  S  S  S  S  S  S  S  S  S  S  S  S  S  S  S  S  S  S  S  S
|-15-12----------12-15-12----------12-18-15----------15-18-15----------15--|
|-------12----12----------12----12----------17-14-17----------17-14-17-----|
|----------12----------------12--------------------------------------------|
|--------------------------------------------------------------------------|
|--------------------------------------------------------------------------|
|--------------------------------------------------------------------------|


   |------6-------|  |------6-------|  |------6-------|  |------6-------|
   S  S  S  S  S  S  S  S  S  S  S  S  S  S  S  S  S  S  S  S  S  S  S  S
|-19-14----------10-14----------------------------------------------------|
|-------15-12-15-------15-------------15----------------15----------------|
|-------------------------16----16-16----16----------16----16----------16-|
|----------------------------16-------------16----16----------16----16----|
|----------------------------------------------17----------------17-------|
|-------------------------------------------------------------------------|


   |------6------|  |-----6-----| |----6----|  |-----6-----|
   S  S  S  S  S S  S S  S S  S S S S S S S S  S S  S S  S S
|-15-12----------9-12-9---------6-9-6-------6-12-8---------8--|
|-------14-11-14--------11-8-11-------8-5-8--------10-8-10----|
|-------------------------------------------------------------|
|-------------------------------------------------------------|
|-------------------------------------------------------------|
|-------------------------------------------------------------|


   |-----6------|  |----6----| |----6----|  |----6----|
   S  S  S S  S S  S S S S S S S S S S S S  S S S S S S
|-13-10---------7-10-7-------4-7-4-------4-10-7-------7-|
|-------12-9-12--------9-6-9-------6-3-6--------9-6-6---|
|-------------------------------------------------------|
|-------------------------------------------------------|
|-------------------------------------------------------|
|-------------------------------------------------------|


                                                ~~
  |----6----|  |-----6-----|  |------6-------|
  S S S S S S  S S  S S  S S  S  S  S  S  S  S  Q
|-9-6-------6-12-9---------9-15-12----------12-15---|
|-----8-5-8--------11-8-11---------14-11-14---------|
|---------------------------------------------------|
|---------------------------------------------------|
|---------------------------------------------------|
|---------------------------------------------------|


   |------6-------|  |------6-------|  |------6-------|  |------6-------|
   S  S  S  S  S  S  S  S  S  S  S  S  S  S  S  S  S  S  S  S  S  S  S  S
|-------------------------------------------------------------------------|
|-15-14----------14-15-14----------14-15-14----------14-15-14-15-14-------|
|-------16-15-16----------16-15-16----------16-15-16----------------16-15-|
|-------------------------------------------------------------------------|
|-------------------------------------------------------------------------|
|-------------------------------------------------------------------------|


               ~~
   E  E  E  E  H
|-------14-18-19----|
|----15-------------|
|-16----------------|
|-------------------|
|-------------------|
|-------------------|


   |------6-------|  |------6-------|  |------6-------|  |------6-------|
   S  S  S  S  S  S  S  S  S  S  S  S  S  S  S  S  S  S  S  S  S  S  S  S
|----------------12-15p12----------------------------14-19p14-------------|
|-------------14----------14----------------------15----------15----------|
|-------12h15----------------15p12-------------16----------------16-------|
|-11h14----------------------------14----12h16----------------------16p12-|
|-------------------------------------14----------------------------------|
|-------------------------------------------------------------------------|


   |------6-------|  |------6-------|  |------6-------|  |------6-------|
   S  S  S  S  S  S  S  S  S  S  S  S  S  S  S  S  S  S  S  S  S  S  S  S
|----------------12-15p12----------------------------14-19p14--------------|
|-------------14----------14----------------------15----------15-----------|
|-------12h15----------------15p12-------------16----------------16--------|
|-11h14----------------------------14----12h16----------------------16p12--|
|-------------------------------------14-----------------------------------|
|--------------------------------------------------------------------------|


   |------6-------|  |------6-------|  |------6-------|  |------6-------|
   S  S  S  S  S  S  S  S  S  S  S  S  S  S  S  S  S  S  S  S  S  S  S  S
|-15-14----------------------------------------------14-19-14----------14-|
|-------17-15-14----------------------------------15----------15----15----|
|----------------16-15-------------------------16----------------16-------|
|----------------------17-16-14-------------16----------------------------|
|-------------------------------17-16-14-17-------------------------------|
|-------------------------------------------------------------------------|


                                            ~~
   |------6-------|  |------6-------|
   S  S  S  S  S  S  S  S  S  S  S  S   Q   Q
|-16-13----------13-16-13----------13-/19--18--|
|-------15-12-15----------15-12-15-------------|
|----------------------------------------------|
|----------------------------------------------|
|----------------------------------------------|
|----------------------------------------------|


   |------6-------|  |------6-------|  |------6-------|  |------6-------|
   S  S  S  S  S  S  S  S  S  S  S  S  S  S  S  S  S  S  S  S  S  S  S  S
|----------------12-15p12----------------------------14-19p14-------------|
|-------------14----------14----------------------15----------15----------|
|-------12h15----------------15p12-------------16----------------16-------|
|-11h14----------------------------14----12h16----------------------16p12-|
|-------------------------------------14----------------------------------|
|-------------------------------------------------------------------------|


   |------6-------|  |------6-------|  |------6-------|  |------6-------|
   S  S  S  S  S  S  S  S  S  S  S  S  S  S  S  S  S  S  S  S  S  S  S  S
|----------------12-15p12----------------------------14-19p14--------------|
|-------------14----------14----------------------15----------15-----------|
|-------12h15----------------15p12-------------16----------------16--------|
|-11h14----------------------------14----12h16----------------------16p12--|
|-------------------------------------14-----------------------------------|
|--------------------------------------------------------------------------|


   |------6-------|  |------6-------|  |------6-------|  |------6-------|
   S  S  S  S  S  S  S  S  S  S  S  S  S  S  S  S  S  S  S  S  S  S  S  S
|-15-14----------------------------------------------14-19-14----------14-|
|-------17-15-14----------------------------------15----------15----15----|
|----------------16-15-------------------------16----------------16-------|
|----------------------17-16-14-------------16----------------------------|
|-------------------------------17-16-14-17-------------------------------|
|-------------------------------------------------------------------------|


   |------6-------|  |------6-------|  |------6-------|  |------6-------|
   S  S  S  S  S  S  S  S  S  S  S  S  S  S  S  S  S  S  S  S  S  S  S  S
|-16-13----------13-16-13----------13-18-15----------15-18-15----------15--|
|-------15-12-15----------15-12-15----------17-14-17----------17-14-17-----|
|--------------------------------------------------------------------------|
|--------------------------------------------------------------------------|
|--------------------------------------------------------------------------|
|--------------------------------------------------------------------------|


   |------6-------|  |------6-------|  |------6-------|
   S  S  S  S  S  S  S  S  S  S  S  S  S  S  S  S  S  S  E  S  S
|-19-16----------16-19-16----------16-21-18----------18-21-19-18-|
|-------18-15-18----------18-15-18----------20-17-20-------------|
|----------------------------------------------------------------|
|----------------------------------------------------------------|
|----------------------------------------------------------------|
|----------------------------------------------------------------|


   ~~                                            ~~
       |------6-------|
   Q   S  S  S  S  S  S  T  T  T  T  T  T  T  T  Q
|-19--19-17-15---------------------------------------||
|--------------19-17-15-15-14------------------------||
|-----------------------------15---------------------||
|--------------------------------17-16-14------------||
|-----------------------------------------17-16-14---||
|----------------------------------------------------||


  |----6----| |----6----| |----6----| |----6----|
  S S S S S S S S S S S S S S S S S S S S S S S S
|-6-3-------3-6-3-------3-5-2-------2-5-2-------2-|
|-----3---3-------3---3-------3---3-------3---3---|
|-------3-----------3-----------2-----------2-----|
|-------------------------------------------------|
|-------------------------------------------------|
|-------------------------------------------------|


  |----6----| |----6----|  |----6----|  |----6----|
  S S S S S S S S S S S S  S S S S S S  S S S S S S
|-6-3-------3-6-3-------3-10-7-------7-10-7-------7--|
|-----3---3-------3---3--------8---8--------8---8----|
|-------3-----------3------------7------------7------|
|----------------------------------------------------|
|----------------------------------------------------|
|----------------------------------------------------|


   |----6----|  |----6----|  |----6----|  |----6----|
   S S S S S S  S S S S S S  S S S S S S  S S S S S S
|-11-8-------8-11-8-------8-10-7-------7-10-7-------7-|
|------8---8--------8---8--------8---8--------8---8---|
|--------8------------8------------7------------7-----|
|-----------------------------------------------------|
|-----------------------------------------------------|
|-----------------------------------------------------|


   |----6----|  |----6----|  |------6-------|  |------6-------|
   S S S S S S  S S S S S S  S  S  S  S  S  S  S  S  S  S  S  S
|-11-8-------8-11-8-------8-14-11----------11-14-11----------11--|
|------8---8--------8---8---------13-10-13----------13-10-13-----|
|--------8------------8------------------------------------------|
|----------------------------------------------------------------|
|----------------------------------------------------------------|
|----------------------------------------------------------------|


   |------6-------|  |------6-------|  |------6-------|  |------6-------|
   S  S  S  S  S  S  S  S  S  S  S  S  S  S  S  S  S  S  S  S  S  S  S  S
|-18-15----------15-18-15----------15-15----------------15-------------15-|
|-------15----15----------15----15-------15----------15----15-------------|
|----------15----------------15-------------15----15----------15----15----|
|----------------------------------------------17----------------17-------|
|-------------------------------------------------------------------------|
|-------------------------------------------------------------------------|


   |------6-------|  |------6------|  |-----6-----| |---6---|
   S  S  S  S  S  S  S  S  S  S  S S  S S  S S  S S S S S S E
|-17-14----------11-14-11----------8-11-8---------5-8-5---------|
|-------16-13-16----------13-10-13--------10-7-10-------7-4-7---|
|---------------------------------------------------------------|
|---------------------------------------------------------------|
|---------------------------------------------------------------|
|---------------------------------------------------------------|


   |-----6------|  |------6-------|  |-----6-----| |---6---|
   S S  S S  S  S  S  S  S  S  S  S  S S  S S  S S S S S S E
|-12-9---------12-15-12----------12-12-9---------6-9-6-------|
|------11-8-11----------14-11-14---------11-8-11-------8-5-8-|
|------------------------------------------------------------|
|------------------------------------------------------------|
|------------------------------------------------------------|
|------------------------------------------------------------|


                                            ~
   |-----6-----|  |-----6-----| |----6----|
   S S  S S  S S  S S  S S  S S S S S S S S Q
|-11-8---------8-11-8---------8-8-5-------5-8----|
|------10-7-10--------10-7-10-------7-4-7--------|
|------------------------------------------------|
|------------------------------------------------|
|------------------------------------------------|
|------------------------------------------------|


                                                                ~~
  |----6----| |----6----| |----6----| |----6----|
  S S S S S S S S S S S S S S S S S S S S S S S S   E  E  E  E  H
|-6-5-------5-6-5-------5-6-5-------5-6-5-6-5-----|------10-14-15----||
|-----8-7-8-------8-7-8-------8-7-8-----------8-7-|-8-11-------------||
|-------------------------------------------------|------------------||
|-------------------------------------------------|------------------||
|-------------------------------------------------|------------------||
|-------------------------------------------------|------------------||


   |----6----|  |----6----| |----6----| |----6----|
   S S S S S S  S S S S S S S S S S S S S S S S S S
|-10-7-------7-10-7-------7-9-6-------6-9-6-------6-|
|------7---7--------7---7-------7---7-------7---7---|
|--------7------------7-----------6-----------6-----|
|---------------------------------------------------|
|---------------------------------------------------|
|---------------------------------------------------|


   |----6----|  |----6----|  |------6-------|  |------6-------|
   S S S S S S  S S S S S S  S  S  S  S  S  S  S  S  S  S  S  S
|-10-7-------7-10-7-------7-14-11----------11-14-11----------11--|
|------7---7--------7---7---------12----12----------12----12-----|
|--------7------------7--------------11----------------11--------|
|----------------------------------------------------------------|
|----------------------------------------------------------------|
|----------------------------------------------------------------|


   |------6-------|  |------6-------|  |------6-------|  |------6-------|
   S  S  S  S  S  S  S  S  S  S  S  S  S  S  S  S  S  S  S  S  S  S  S  S
|-15-12----------12-15-12----------12-14-11----------11-14-11----------11-|
|-------12----12----------12----12----------12----12----------12----12----|
|----------12----------------12----------------11----------------11-------|
|-------------------------------------------------------------------------|
|-------------------------------------------------------------------------|
|-------------------------------------------------------------------------|


   |------6-------|  |------6-------|  |------6-------|  |------6-------|
   S  S  S  S  S  S  S  S  S  S  S  S  S  S  S  S  S  S  S  S  S  S  S  S
|-15-12----------12-15-12----------12-18-15----------15-18-15----------15--|
|-------12----12----------12----12----------17-14-17----------17-14-17-----|
|----------12----------------12--------------------------------------------|
|--------------------------------------------------------------------------|
|--------------------------------------------------------------------------|
|--------------------------------------------------------------------------|


   |------6-------|  |------6-------|  |------6-------|  |------6-------|
   S  S  S  S  S  S  S  S  S  S  S  S  S  S  S  S  S  S  S  S  S  S  S  S
|-19-14----------10-14----------------------------------14-------------14-|
|-------15-12-15-------15-------------15-------------------15-------------|
|-------------------------16----16-16----16----------16-------16----16----|
|----------------------------16-------------16----16-------------16-------|
|----------------------------------------------17-------------------------|
|-------------------------------------------------------------------------|


   |------6-------|  |------6-------|  |------6------|  |----6----|
   S  S  S  S  S  S  S  S  S  S  S  S  S  S  S  S  S S  S S  S S  E
|-15-12----------12-18-15----------12-15-12----------9-12-9-----------|
|-------14-11-14----------17-14-17----------14-11-14--------11-8-11---|
|---------------------------------------------------------------------|
|---------------------------------------------------------------------|
|---------------------------------------------------------------------|
|---------------------------------------------------------------------|


   |------6-------|  |-----6------|  |---6---|  |------6------|
   S  S  S  S  S  S  S  S  S S  S S  S S S S E  S  S  S S  S  S
|-16-13----------10-13-10---------7-10-7-------14-10---------10-|
|-------15-12-15----------12-9-12--------9-6-9-------12-9-12----|
|---------------------------------------------------------------|
|---------------------------------------------------------------|
|---------------------------------------------------------------|
|---------------------------------------------------------------|


                                             ~~
   |-----6-----| |----6----|  |-----6-----|
   S S  S S  S S S S S S S S  S S  S S  S S  Q
|-12-9---------6-9-6-------6-12-9---------9-12----|
|------11-8-11-------8-5-8--------11-8-11---------|
|-------------------------------------------------|
|-------------------------------------------------|
|-------------------------------------------------|
|-------------------------------------------------|


   |------6-------|  |------6-------|  |------6-------|  |------6-------|
   S  S  S  S  S  S  S  S  S  S  S  S  S  S  S  S  S  S  S  S  S  S  S  S
|-------------------------------------------------------------------------|
|-15-14----------14-15-14----------14-15-14----------14-15-14-15-14-------|
|-------16-15-16----------16-15-16----------16-15-16----------------16-15-|
|-------------------------------------------------------------------------|
|-------------------------------------------------------------------------|
|-------------------------------------------------------------------------|


               ~~
   E  E  E  E  H
|-------14-18-19----|
|----15-------------|
|-16----------------|
|-------------------|
|-------------------|
|-------------------|


  S E. S E.  S  E.  S  E.    S  E.  +H.         +W
|-------------------------|------------------|-------------|
|-------------------------|------------------|-------------|
|-------------------------|------------------|-------------|
|-8-8--9-9--10-10--11-11--|-12-12--(12)------|-(12)--------|
|-6-6--7-7---8--8---9--9--|-10-10--(10)------|-(10)--------|
|-------------------------|------------------|-------------|


     S  S  S  S  S  S  S  S  S  S  S  S  S  S  S  S
||--------------------------------------14----------|
||o-14----------15----------17----------------------|
||-----16-15-16----16-15-16----16-15-16----16-15-16-|
||--------------------------------------------------|
||o-------------------------------------------------|
||--------------------------------------------------|


                                       ~~
   S  S  S  S  S  S  S  S  S  S  S  S  Q
|-15----------------------------------14--|
|-------------17----------18--------------|
|----16-15-16----16-15-16----16-15-16-----|
|-----------------------------------------|
|-----------------------------------------|
|-----------------------------------------|


                                                                                         ~~
   S  S  S  S  S  S  S  S  S  S  S  S  S  S  S  S    S  S  S  S  S  S  S  S  S  S  S  S  Q
|-------------------------------------14----------|-15----------------------------------14--|
|-14----------15----------17----------------------|-------------17----------18--------------|
|----16-15-16----16-15-16----16-15-16----16-15-16-|----16-15-16----16-15-16----16-15-16-----|
|-------------------------------------------------|-----------------------------------------|
|-------------------------------------------------|-----------------------------------------|
|-------------------------------------------------|-----------------------------------------|


   S  S  S  S  S  S  S  S  S  S  S  S  S  S  S  S
|-15-19-18-19-15-19-18-19-14-19-18-19-14-19-18-19-|
|-------------------------------------------------|
|-------------------------------------------------|
|-------------------------------------------------|
|-------------------------------------------------|
|-------------------------------------------------|


                                       ~~
   S  S  S  S  S  S  S  S  S  S  S  S  Q
|----19-18-19----19-18-19----19-19-18-19--|
|-17----------17----------15--------------|
|-----------------------------------------|
|-----------------------------------------|
|-----------------------------------------|
|-----------------------------------------|


  1.
   |------6-------|  |------6-------|  |-----6------| |-----6------|
   S  S  S  S  S  S  S  S  S  S  S  S  S  S S  S  S S S S  S  S S  S
|-15-14-12-----------------------------------------------------------|
|----------15-14-12-11-12-14-12-11-----------------------------------|
|----------------------------------11-12-11-9-------------------9-11-|
|---------------------------------------------12-11-9-8-9-11-12------|
|--------------------------------------------------------------------|
|--------------------------------------------------------------------|


   |-----6------| |----6-----|  |----6-----|
   S  S S  S  S S S S  S S S S  S S S  S S S Q
|-------------------------------------------------||
|------------------------------------------------o||
|-12-11-9-----------------------------------------||
|---------12-11-9-8-9-11-9-8----------------------||
|----------------------------9-10-9-7------------o||
|-------------------------------------10-9-7-6----||


  2.
   |------6-------|  |------6-------|  |-----6------|
   S  S  S  S  S  S  S  S  S  S  S  S  S  S S  S  S S Q
|-15-14-12-----------------------------------------------|
|----------15-14-12-11-12-14-12-11-----------------------|
|----------------------------------11-12-11-9------------|
|---------------------------------------------12-11-9-8--|
|--------------------------------------------------------|
|--------------------------------------------------------|


                                                         ~~
   |------6-------|  |------6-------|  |------6-------|
   S  S  S  S  S  S  S  S  S  S  S  S  S  S  S  S  S  S  Q
|-20-19-17--------------------------------------------------||
|----------20-19-17-16-17-19-17-16--------------------------||
|----------------------------------16-17-16-----------------||
|-------------------------------------------19-17-16--------||
|----------------------------------------------------19-18--||
|-----------------------------------------------------------||


             ~~~~~~~~~~~
   H        +H        H      E  E  E  E
|------------------|-----------------18-|
|-17b20r===(17)----|-----------17-20----|
|------------------|-16----/18----------|
|------------------|--------------------|
|------------------|--------------------|
|------------------|--------------------|
|
| Gtr II
|                     ~~
|  H        +H        H      E  E  E  E
|------------------|--------------18-21-|
|-20b21r===(20)----|-17-----17-20-------|
|------------------|--------------------|
|------------------|--------------------|
|------------------|--------------------|
|------------------|--------------------|


   ~~~~~~~~~~~~~~~~                    ~~~~
   W           +W            H        +H
|-17--------|-(17)--------|------------------|
|-----------|-------------|-17b20r===(17)----|
|-----------|-------------|------------------|
|-----------|-------------|------------------|
|-----------|-------------|------------------|
|-----------|-------------|------------------|
|
|  ~~~~~~~~~~~~~~~~
|  W           +W            H        +H
|-20--------|-(20)--------|------------------|
|-----------|-------------|-20b21r===(20)----|
|-----------|-------------|------------------|
|-----------|-------------|------------------|
|-----------|-------------|------------------|
|-----------|-------------|------------------|


   ~~                               ~~~~~~~~~
   H      E  E  E  E    S  S  S  S  H.
|-----------------18-|-17h18p17-15-17-------|
|-----------17-20----|----------------------|
|-16----/18----------|----------------------|
|--------------------|----------------------|
|--------------------|----------------------|
|--------------------|----------------------|
|
|  ~~                               ~~~~~~~~~
|  H      E  E  E  E    S  S  S  S  H.
|--------------18-21-|-20h21p20-18-20-------|
|-17-----17-20-------|----------------------|
|--------------------|----------------------|
|--------------------|----------------------|
|--------------------|----------------------|
|--------------------|----------------------|


 ~~~~~~                               ~~~
   +H       E  E  E  E    S  S  S  S  H.
|-(17)-----------14-17-|-15h17p15-14-15----|
|---------/13-16-------|-------------------|
|----------------------|-------------------|
|----------------------|-------------------|
|----------------------|-------------------|
|----------------------|-------------------|
|
|~~~~~~                               ~~~
|  +H       E  E  E  E    S  S  S  S  H.
|-(20)-----------17-20-|-19h20p19-17-19----|
|---------/16-19-------|-------------------|
|----------------------|-------------------|
|----------------------|-------------------|
|----------------------|-------------------|
|----------------------|-------------------|


                                                     ~~
   S  S  S  S  S  S  S  S  S  S  S  S  S  S  S  S    W
|-15-14-12----14-12-------12----------------------|-14--------|
|----------15-------15-13----15-13-12-15-13-12----|-----------|
|----------------------------------------------14-|-----------|
|-------------------------------------------------|-----------|
|-------------------------------------------------|-----------|
|-------------------------------------------------|-----------|
|
|                                                    ~~
|  S  S  S  S  S  S  S  S  S  S  S  S  S  S  S  S    W
|-19-17-------17----------------------------------|-17--------|
|-------20-19----20-19-17-20-19-17----19-17-------|-----------|
|----------------------------------19-------19-17-|-----------|
|-------------------------------------------------|-----------|
|-------------------------------------------------|-----------|
|-------------------------------------------------|-----------|


   S  S  S  S  S  S  S  S  S  S  S  S  S  S  S  S
|-14-12-------12------------------------------------|
|-------15-13----15-13-12-15-13-12----13-12---------|
|----------------------------------14-------14-12---|
|---------------------------------------------------|
|---------------------------------------------------|
|---------------------------------------------------|
|
|  S  S  S  S  S  S  S  S  S  S  S  S  S  S  S  S
|-17-15-14----15-14-------14------------------------|
|----------17-------17-15----17-15-13-17-15-13------|
|----------------------------------------------16---|
|---------------------------------------------------|
|---------------------------------------------------|
|---------------------------------------------------|


   ~~
   W           S  S  S  S  S  S  S  S  S  S  S  S  S  S  S  S
|-12--------|-12-10-------10----------------------------------|
|-----------|-------13-12----13-12-10-13-12-10----12-10-------|
|-----------|----------------------------------12-------12-11-|
|-----------|-------------------------------------------------|
|-----------|-------------------------------------------------|
|-----------|-------------------------------------------------|
|
|  ~~
|  W           S  S  S  S  S  S  S  S  S  S  S  S  S  S  S  S
|-15--------|-15-14-12----14-12-------12----------------------|
|-----------|----------15-------15-13----15-13-12-15-13-12----|
|-----------|----------------------------------------------14-|
|-----------|-------------------------------------------------|
|-----------|-------------------------------------------------|
|-----------|-------------------------------------------------|


   S  S  S  S  S  S  S  S  S  S  S  S  S  S  S  S
|---------------------------------------------------|
|-10------------------------------------------------|
|----12-11--9-12-11--9--8-11--9--8-----9--8---------|
|----------------------------------10-------10--9---|
|---------------------------------------------------|
|---------------------------------------------------|
|
|  S  S  S  S  S  S  S  S  S  S  S  S  S  S  S  S
|---------------------------------------------------|
|-13-12-------12------------------------------------|
|-------14-12----14-12-11-14-12-11----12-11---------|
|----------------------------------14-------14-13---|
|---------------------------------------------------|
|---------------------------------------------------|


   S  S  S  S  S  S  S  S  S  S  S  S  S  E.
|--------------------------------------------------||
|--------------------------------------------------||
|--8-----------------------------------------------||
|----10--9--7-10--9--7-----9--7--------7-----------||
|----------------------10-------10--9----10--------||
|--------------------------------------------------||
|
|  S  S  S  S  S  S  S  S  S  S  S  S  S  S   S  S
|--------------------------------------------------||
|--------------------------------------------------||
|-11-----------------------------------------------||
|----14-13-10-14-13-10--9-12-10--9----10--9--------||
|----------------------------------12--------12-10-||
|--------------------------------------------------||


             ~~~~~~~~~~~                  ~~~
   H        +H        H     E  E  E  E    H.       +E   E
|-12b15r===(12)----|-------------15-18-|-17-------(17)-19----|
|------------------|-12----14-17-------|---------------------|
|------------------|-------------------|---------------------|
|------------------|-------------------|---------------------|
|------------------|-------------------|---------------------|
|------------------|-------------------|---------------------|
|
|            ~~~~~~~~~~~                  ~~~
|  H        +H        H     E  E  E  E    H.       +E   E
|-15b16r===(15)----|-12----------18-21-|-20-------(20)-22----|
|------------------|-------17-20-------|---------------------|
|------------------|-------------------|---------------------|
|------------------|-------------------|---------------------|
|------------------|-------------------|---------------------|
|------------------|-------------------|---------------------|


                                     ~~~~~~
   H.          +E.  +S     H         H
|-19b21=======(19)r(19)-|-12b15r====12----|
|-----------------------|-----------------|
|-----------------------|-----------------|
|-----------------------|-----------------|
|-----------------------|-----------------|
|-----------------------|-----------------|
|
|                                    ~~~~~~
|  W                       H         H
|-22b24-----------------|-15pb17r===15----|
|-----------------------|-----------------|
|-----------------------|-----------------|
|-----------------------|-----------------|
|-----------------------|-----------------|
|-----------------------|-----------------|


 ~~~~                              ~~~
   H     E  E  E  E    S  S  S  S  H.
|-------------15-18-|-17h18p17-15-17-----|
|-12----14-17-------|--------------------|
|-------------------|--------------------|
|-------------------|--------------------|
|-------------------|--------------------|
|-------------------|--------------------|
|
|~~~~                              ~~~
|  H     E  E  E  E    S  S  S  S  H.
|-12----------18-21-|-20-21-20-18-20-----|
|-------17-20-------|--------------------|
|-------------------|--------------------|
|-------------------|--------------------|
|-------------------|--------------------|
|-------------------|--------------------|


    ~~~~                             ~~~
   +H      E  E  E  E    S  S  S  S  H.
|-(17)----------14-17-|-15h17p15-14-15-------|
|---------13-16-------|----------------------|
|---------------------|----------------------|
|---------------------|----------------------|
|---------------------|----------------------|
|---------------------|----------------------|
|
|   ~~~~                             ~~~~~~~~~
|  +H      E  E  E  E    S  S  S  S  H.
|-(20)----------17-20-|-19h20p19-17-19-------|
|---------16-19-------|----------------------|
|---------------------|----------------------|
|---------------------|----------------------|
|---------------------|----------------------|
|---------------------|----------------------|


                                                   ~~~~~~~~~
    |--------7---------|  |-----6-----| |-3--|
    S   S  S  S  S  S  S  S  S S S  S S S  S S +E  Q      W
|--15--14-12-11---------------------------------------|-/14----|
|---------------13-12-10------------------------------|--------|
|------------------------12-11-9-8--------------------|--------|
|----------------------------------10-9-7-------------|--------|
|-----------------------------------------10-7-(7)-7--|--------|
|-----------------------------------------------------|--------|
|
|~~~~~~~~~~~~~~~~~~~~~~~~~~~~~~~~~~~~~~~~~~~~~~~~~~~~~~~~~~~
|  +W                                                     W
|-(19)------------------------------------------------|--17----|
|-----------------------------------------------------|--------|
|-----------------------------------------------------|--------|
|-----------------------------------------------------|--------|
|-----------------------------------------------------|--------|
|-----------------------------------------------------|--------|


                                                 ~~~~~
    |-------6-------|  |-----6-----| |---6----|
    S   S  S  S  S  S  S  S S S  S S S  S S S E +Q
|--14--12-11-----------------------------------------|
|------------13-12-10--------------------------------|
|---------------------12-11-9-8----------------------|
|-------------------------------10-9-7---------------|
|--------------------------------------10-9-7-6-(6)--|
|----------------------------------------------------|
|
|   ~~~~~~~~~~~~~~~~~~~~~~~~~~~~~~~~~~~~~~~~~~~~~~~~~~
|  +W
|-(17)-----------------------------------------------|
|----------------------------------------------------|
|----------------------------------------------------|
|----------------------------------------------------|
|----------------------------------------------------|
|----------------------------------------------------|


 ~~~~~                                                       ~~~
                 |-------6-------|  |----6-----|  |-3-|
    W            S   S  S  S  S  S  S S S  S S S  S S S +E  +Q
|-/12--------|--12--10-------------------------------------------|
|-/12--------|---------13-12-10----------------------------------|
|------------|------------------12-11-9-8------------------------|
|------------|----------------------------10-9-7-----------------|
|------------|-----------------------------------10-9-7-(7)-(7)--|
|------------|---------------------------------------------------|
|
|~~~~~~~~~~~~~~~~~~~
|   W           +W
|--15--------|-(15)----------------------------------------------|
|------------|---------------------------------------------------|
|------------|---------------------------------------------------|
|------------|---------------------------------------------------|
|------------|---------------------------------------------------|
|------------|---------------------------------------------------|


    ~      ~        ~        ~~~~~~~~~~       ~~                     ~~
  a H    a H      a H     a  H       Q  E  E  Q  E  E    E  E  E  E  H
|---------------|-----------------|-------------------|-----------3s=7----|
|---------------|---------4S=5----|--5--------5-------|--5-----5----------|
|---------------|-4S5-------------|--------4--------4-|-----4-------------|
|--------4S5----|-----------------|-------------------|-------------------|
|-6S7-----------|-----------------|-------------------|-------------------|
|---------------|-----------------|-------------------|-------------------|
|
|   ~~     ~~       ~~       ~~      ~~       ~~                     ~~
|   H      H        H        H       H        H          E  E  E  E  H
|---5-----------|---8-------11----|-12----------------|-------12-14-15----|
|----------7----|-----------------|-------------------|----12-------------|
|--------4S5----|-8S9----11S12----|-12----11-12----11-|-12----------------|
|-4S5-----------|-----------------|-------------------|-------------------|
|---------------|-----------------|-------------------|-------------------|
|---------------|-----------------|-------------------|-------------------|
  a H    a H      a H     a  H       Q  E  E  Q  E  E    W


   E  S  S  S  S  S  S  E  S  S  S  S  S  S
|--8--7--5--------------5-------------------|
|-----------8--7--5--------8--7--5--4-------|
|--------------------7-----------------6--4-|
|-------------------------------------------|
|-------------------------------------------|
|-------------------------------------------|
|
|  E  S  S  S  S  S  S  E  S  S  S  S  S  S
|-20-19-17-------------17-------------------|
|----------20-19-17-------20-19-17-16-------|
|-------------------19----------------18-16-|
|-------------------------------------------|
|-------------------------------------------|
|-------------------------------------------|


                                                           ~~
   E  S  S  S  S  S  S  S  S  S  S  S  S  S  S    Q  E  E  Q  E  E
|----------------------------------------------|-------------------|
|--7--5--4-------------------------------------|-------------------|
|-----------5--4--2----------------------------|-----------------4-|
|--------------------5--4--2-------------------|-----------2-------|
|-----------------------------6--3--2----------|--------2----------|
|--------------------------------------5--3--2-|--0----------------|
|
|                                                 ~~       ~~
|  E  S  S  S  S  S  S  S  S  S  S  S  S  S  S    Q  E  E  Q  E  E
|----------------------------------------------|-------------------|
|-19-17-16-------------------------------------|-------------------|
|----------17-16-14----------------------------|-12----11-12----11-|
|-------------------17-16-14-13----------------|-------------------|
|-------------------------------15-14-12-------|-------------------|
|----------------------------------------15-14-|-------------------|


               ~~
   E  E  E  E  H       E  S  S  S  S  S  S  E  S  S  S  S  S  S
|-----------3s=7----|--8--7--5--------------5-------------------|
|--5-----5----------|-----------8--7--5--------8--7--5----------|
|-----4-------------|--------------------7--------------8--6--4-|
|-------------------|-------------------------------------------|
|-------------------|-------------------------------------------|
|-------------------|-------------------------------------------|
|
|              ~~
|  E  E  E  E  H       E  S  S  S  S  S  S  E  S  S  S  S  S  S
|-------------12----|-20-19-17-------------17-------------------|
|----------12-------|----------20-19-17-------20-19-17-16-------|
|-12-11-12----------|-------------------19----------------18-16-|
|-------------------|-------------------------------------------|
|-------------------|-------------------------------------------|
|-------------------|-------------------------------------------|


   E  S  S  S  S  S  S  S  S  S  S  S  S  S  S
|----------------------------------------------|
|--7--5--4-------------------------------------|
|-----------5--4--2----------------------------|
|--------------------5--4--2-------------------|
|-----------------------------6--3--2----------|
|--------------------------------------5--3--2-|
|
|  E  S  S  S  S  S  S  S  S  S  S  S  S  S  S
|----------------------------------------------|
|-19-17-16-------------------------------------|
|----------17-16-14----------------------------|
|-------------------17-16-14-13----------------|
|-------------------------------15-14-12-------|
|----------------------------------------15-14-|


  W           S  S S S S S S S +H       +W           +W
|----------|--------------------------|------------|----------------*|
|----------|--------------------------|------------|----------------*|
|----------|--------------------------|------------|----------------*|
|----------|--------------------------|------------|----------------*|
|-2--------|--2--2-2-2-2-2-2-2-(2)----|-(2)--------|-(2)------------*|
|-0--------|--0--0-0-0-0-0-0-0-(0)----|-(0)--------|-(0)------------*|
|
| W          +W                          W            E   E   H.
|----------|--------------------------|------------|-<5>------------*|
|----------|--------------------------|------------|---------<7>----*|
|----------|--------------------------|------------|-----<5>--------*|
|----------|--------------------------|------------|----------------*|
|----------|--------------------------|--2---------|----------------*|
|-0--------|-(0)----------------------|--0---------|----------------*|



Duration Legend
---------------
W - whole; H - half; Q - quarter; E - 8th; S - 16th; T - 32nd; X - 64th; a - acciaccatura
+ - note tied to previous; . - note dotted; .. - note double dotted
Uncapitalized letters represent notes that are staccato (1/2 duration)
Irregular groupings are notated above the duration line
Duration letters will always appear directly above the note/fret number it represents the
duration for.  Duration letters with no fret number below them represent rests.  Multi-
bar rests are notated in the form Wxn, where n is the number of bars to rest for.  Low
melody durations appear below the staff

Tablature Legend
----------------
 h   - hammer-on
 p   - pull-off
 b   - bend
 pb  - pre-bend
 r   - bend release (if no number after the r, then release immediately)
 /\  - slide into or out of (from/to "nowhere")
 s   - legato slide
 S   - shift slide
 - natural harmonic
[n]  - artificial harmonic
n(n) - tapped harmonic
 ~   - vibrato
 tr  - trill
 T   - tap
 TP  - trem. picking
 PM  - palm muting
\n/  - tremolo bar dip; n = amount to dip
 \n  - tremolo bar down
 n/  - tremolo bar up
/n\  - tremolo bar inverted dip
 =   - hold bend; also acts as connecting device for hammers/pulls
 <> - volume swell (louder/softer)
 x   - on rhythm slash represents muted slash
 o   - on rhythm slash represents single note slash

Misc Legend
-----------
 |  - bar
||  - double bar
||o - repeat start
o|| - repeat end
*|  - double bar (ending)
 :  - bar (freetime)
 $  - Segno
 &  - Coda
Tempo markers -  = BPM(8/16=s8/s16), where s8 = swing 8ths, s16 = swing 16ths

comments
We did not receive enough feedback on this tab! Please rate:
print report bad tab
1 2 3 4 5
I want to post or [tab]
guest
You may want to rate the tab now too:
select rating
Please do not post tabs as comments. Select "correction" instead!